  0
SECTION
  2
HEADER
  9
$ACADVER
  1
AC1014
  9
$ACADMAINTVER
 70
     9
  9
$DWGCODEPAGE
  3
ANSI_932
  9
$INSBASE
 10
0.0
 20
0.0
 30
0.0
  9
$EXTMIN
 10
-145.0347734569536
 20
-74.13563302793747
 30
0.0
  9
$EXTMAX
 10
148.3790701447664
 20
70.08546357279229
 30
0.0
  9
$LIMMIN
 10
-74.25
 20
-52.5
  9
$LIMMAX
 10
74.25
 20
52.5
  9
$ORTHOMODE
 70
     0
  9
$REGENMODE
 70
     1
  9
$FILLMODE
 70
     1
  9
$QTEXTMODE
 70
     0
  9
$MIRRTEXT
 70
     1
  9
$DRAGMODE
 70
     2
  9
$LTSCALE
 40
0.5
  9
$OSMODE
 70
    37
  9
$ATTMODE
 70
     1
  9
$TEXTSIZE
 40
0.2
  9
$TRACEWID
 40
0.05
  9
$TEXTSTYLE
  7
STANDARD
  9
$CLAYER
  8
0
  9
$CELTYPE
  6
BYLAYER
  9
$CECOLOR
 62
   256
  9
$CELTSCALE
 40
1.0
  9
$DELOBJ
 70
     1
  9
$DISPSILH
 70
     0
  9
$DIMSCALE
 40
1.0
  9
$DIMASZ
 40
1.25
  9
$DIMEXO
 40
0.0625
  9
$DIMDLI
 40
0.38
  9
$DIMRND
 40
0.0
  9
$DIMDLE
 40
0.0
  9
$DIMEXE
 40
0.18
  9
$DIMTP
 40
0.0
  9
$DIMTM
 40
0.0
  9
$DIMTXT
 40
0.18
  9
$DIMCEN
 40
0.09
  9
$DIMTSZ
 40
0.0
  9
$DIMTOL
 70
     0
  9
$DIMLIM
 70
     0
  9
$DIMTIH
 70
     1
  9
$DIMTOH
 70
     1
  9
$DIMSE1
 70
     0
  9
$DIMSE2
 70
     0
  9
$DIMTAD
 70
     3
  9
$DIMZIN
 70
     0
  9
$DIMBLK
  1

  9
$DIMASO
 70
     1
  9
$DIMSHO
 70
     1
  9
$DIMPOST
  1

  9
$DIMAPOST
  1

  9
$DIMALT
 70
     0
  9
$DIMALTD
 70
     2
  9
$DIMALTF
 40
25.4
  9
$DIMLFAC
 40
1.0
  9
$DIMTOFL
 70
     0
  9
$DIMTVP
 40
0.0
  9
$DIMTIX
 70
     0
  9
$DIMSOXD
 70
     0
  9
$DIMSAH
 70
     0
  9
$DIMBLK1
  1

  9
$DIMBLK2
  1

  9
$DIMSTYLE
  2
STANDARD
  9
$DIMCLRD
 70
     0
  9
$DIMCLRE
 70
     0
  9
$DIMCLRT
 70
     0
  9
$DIMTFAC
 40
1.0
  9
$DIMGAP
 40
0.09
  9
$DIMJUST
 70
     0
  9
$DIMSD1
 70
     0
  9
$DIMSD2
 70
     0
  9
$DIMTOLJ
 70
     1
  9
$DIMTZIN
 70
     0
  9
$DIMALTZ
 70
     0
  9
$DIMALTTZ
 70
     0
  9
$DIMFIT
 70
     3
  9
$DIMUPT
 70
     0
  9
$DIMUNIT
 70
     2
  9
$DIMDEC
 70
     4
  9
$DIMTDEC
 70
     4
  9
$DIMALTU
 70
     2
  9
$DIMALTTD
 70
     2
  9
$DIMTXSTY
  7
STANDARD
  9
$DIMAUNIT
 70
     0
  9
$LUNITS
 70
     2
  9
$LUPREC
 70
     4
  9
$SKETCHINC
 40
0.1
  9
$FILLETRAD
 40
0.5
  9
$AUNITS
 70
     0
  9
$AUPREC
 70
     0
  9
$MENU
  1
.
  9
$ELEVATION
 40
0.0
  9
$PELEVATION
 40
0.0
  9
$THICKNESS
 40
0.0
  9
$LIMCHECK
 70
     0
  9
$CHAMFERA
 40
0.5
  9
$CHAMFERB
 40
0.5
  9
$CHAMFERC
 40
1.0
  9
$CHAMFERD
 40
0.0
  9
$SKPOLY
 70
     0
  9
$TDCREATE
 40
2456337.411556111
  9
$TDUPDATE
 40
2456337.411556123
  9
$TDINDWG
 40
0.0000000116
  9
$TDUSRTIMER
 40
0.0000000116
  9
$USRTIMER
 70
     1
  9
$ANGBASE
 50
0.0
  9
$ANGDIR
 70
     0
  9
$PDMODE
 70
     0
  9
$PDSIZE
 40
1.0
  9
$PLINEWID
 40
0.0
  9
$COORDS
 70
     1
  9
$SPLFRAME
 70
     0
  9
$SPLINETYPE
 70
     6
  9
$SPLINESEGS
 70
     8
  9
$ATTDIA
 70
     0
  9
$ATTREQ
 70
     1
  9
$HANDLING
 70
     1
  9
$HANDSEED
  5
17D
  9
$SURFTAB1
 70
     6
  9
$SURFTAB2
 70
     6
  9
$SURFTYPE
 70
     6
  9
$SURFU
 70
     6
  9
$SURFV
 70
     6
  9
$UCSNAME
  2

  9
$UCSORG
 10
0.0
 20
0.0
 30
0.0
  9
$UCSXDIR
 10
1.0
 20
0.0
 30
0.0
  9
$UCSYDIR
 10
0.0
 20
1.0
 30
0.0
  9
$PUCSNAME
  2

  9
$PUCSORG
 10
0.0
 20
0.0
 30
0.0
  9
$PUCSXDIR
 10
1.0
 20
0.0
 30
0.0
  9
$PUCSYDIR
 10
0.0
 20
1.0
 30
0.0
  9
$USERI1
 70
     0
  9
$USERI2
 70
     0
  9
$USERI3
 70
     0
  9
$USERI4
 70
     0
  9
$USERI5
 70
     0
  9
$USERR1
 40
0.0
  9
$USERR2
 40
0.0
  9
$USERR3
 40
0.0
  9
$USERR4
 40
0.0
  9
$USERR5
 40
0.0
  9
$WORLDVIEW
 70
     1
  9
$SHADEDGE
 70
     3
  9
$SHADEDIF
 70
    70
  9
$TILEMODE
 70
     1
  9
$MAXACTVP
 70
    64
  9
$PINSBASE
 10
0.0
 20
0.0
 30
0.0
  9
$PLIMCHECK
 70
     0
  9
$PEXTMIN
 10
1.000000000000000E+20
 20
1.000000000000000E+20
 30
1.000000000000000E+20
  9
$PEXTMAX
 10
-1.000000000000000E+20
 20
-1.000000000000000E+20
 30
-1.000000000000000E+20
  9
$PLIMMIN
 10
0.0
 20
0.0
  9
$PLIMMAX
 10
12.0
 20
9.0
  9
$UNITMODE
 70
     0
  9
$VISRETAIN
 70
     0
  9
$PLINEGEN
 70
     1
  9
$PSLTSCALE
 70
     0
  9
$TREEDEPTH
 70
  3020
  9
$PICKSTYLE
 70
     1
  9
$CMLSTYLE
  2
STANDARD
  9
$CMLJUST
 70
     0
  9
$CMLSCALE
 40
1.0
  9
$PROXYGRAPHICS
 70
     0
  9
$MEASUREMENT
 70
     1
  0
ENDSEC
  0
SECTION
  2
CLASSES
  0
CLASS
  1
ACDBDICTIONARYWDFLT
  2
AcDbDictionaryWithDefault
  3
ObjectDBX Classes
 90
        0
280
     0
281
     0
  0
CLASS
  1
XRECORD
  2
AcDbXrecord
  3
AutoCAD 2000
 90
        0
280
     0
281
     0
  0
CLASS
  1
LWPOLYLINE
  2
AcDbPolyline
  3
AutoCAD 2000
 90
        0
280
     0
281
     1
  0
CLASS
  1
HATCH
  2
AcDbHatch
  3
AutoCAD 2000
 90
        0
280
     0
281
     1
  0
CLASS
  1
ACDBPLACEHOLDER
  2
AcDbPlaceHolder
  3
ObjectDBX Classes
 90
        0
280
     0
281
     0
  0
CLASS
  1
LAYOUT
  2
AcDbLayout
  3
ObjectDBX Classes
 90
        0
280
     0
281
     0
  0
ENDSEC
  0
SECTION
  2
TABLES
  0
TABLE
  2
VPORT
  5
8
330
0
100
AcDbSymbolTable
 70
     1
  0
VPORT
  5
29
330
8
100
AcDbSymbolTableRecord
100
AcDbViewportTableRecord
  2
*ACTIVE
 70
     0
 10
0.0
 20
0.0
 11
1.0
 21
1.0
 12
0.0
 22
0.0
 13
0.0
 23
0.0
 14
0.5
 24
0.5
 15
0.5
 25
0.5
 16
0.0
 26
0.0
 36
1.0
 17
2.423847943194975
 27
-2.132329029172631
 37
0.0
 40
49.25395121951222
 41
1.99430172016581
 42
50.0
 43
0.0
 44
0.0
 50
0.0
 51
0.0
 71
     0
 72
  1000
 73
     1
 74
     1
 75
     0
 76
     0
 77
     0
 78
     0
  0
ENDTAB
  0
TABLE
  2
LTYPE
  5
5
330
0
100
AcDbSymbolTable
 70
    28
  0
LTYPE
  5
14
330
5
100
AcDbSymbolTableRecord
100
AcDbLinetypeTableRecord
  2
BYBLOCK
 70
     0
  3

 72
    65
 73
     0
 40
0.0
  0
LTYPE
  5
15
330
5
100
AcDbSymbolTableRecord
100
AcDbLinetypeTableRecord
  2
BYLAYER
 70
     0
  3

 72
    65
 73
     0
 40
0.0
  0
LTYPE
  5
16
330
5
100
AcDbSymbolTableRecord
100
AcDbLinetypeTableRecord
  2
CONTINUOUS
 70
     0
  3
Solid line
 72
    65
 73
     0
 40
0.0
  0
LTYPE
  5
2B
330
5
100
AcDbSymbolTableRecord
100
AcDbLinetypeTableRecord
  2
HIDDENX2
 70
     0
  3
CADPAC LINETYPE
 72
    65
 73
     2
 40
4.242424242424249
 49
3.181818181818187
 74
     0
 49
-1.060606060606062
 74
     0
  0
LTYPE
  5
2C
330
5
100
AcDbSymbolTableRecord
100
AcDbLinetypeTableRecord
  2
HIDDEN
 70
     0
  3
CADPAC LINETYPE
 72
    65
 73
     2
 40
3.181818181818187
 49
2.121212121212125
 74
     0
 49
-1.060606060606062
 74
     0
  0
LTYPE
  5
2D
330
5
100
AcDbSymbolTableRecord
100
AcDbLinetypeTableRecord
  2
HIDDEN2
 70
     0
  3
CADPAC LINETYPE
 72
    65
 73
     2
 40
2.651515151515156
 49
1.590909090909094
 74
     0
 49
-1.060606060606062
 74
     0
  0
LTYPE
  5
2E
330
5
100
AcDbSymbolTableRecord
100
AcDbLinetypeTableRecord
  2
DASHED
 70
     0
  3
CADPAC LINETYPE
 72
    65
 73
     2
 40
2.969696969696969
 49
2.121212121212125
 74
     0
 49
-0.8484848484848442
 74
     0
  0
LTYPE
  5
2F
330
5
100
AcDbSymbolTableRecord
100
AcDbLinetypeTableRecord
  2
DASHED2
 70
     0
  3
CADPAC LINETYPE
 72
    65
 73
     2
 40
1.909090909090907
 49
1.272727272727252
 74
     0
 49
-0.6363636363636545
 74
     0
  0
LTYPE
  5
30
330
5
100
AcDbSymbolTableRecord
100
AcDbLinetypeTableRecord
  2
DASHEDX2
 70
     0
  3
CADPAC LINETYPE
 72
    65
 73
     2
 40
5.090909090909065
 49
4.242424242424221
 74
     0
 49
-0.8484848484848442
 74
     0
  0
LTYPE
  5
31
330
5
100
AcDbSymbolTableRecord
100
AcDbLinetypeTableRecord
  2
DOTX2
 70
     0
  3
CADPAC LINETYPE
 72
    65
 73
     2
 40
1.856060606060623
 49
0.0
 74
     0
 49
-1.856060606060623
 74
     0
  0
LTYPE
  5
32
330
5
100
AcDbSymbolTableRecord
100
AcDbLinetypeTableRecord
  2
DOT
 70
     0
  3
CADPAC LINETYPE
 72
    65
 73
     2
 40
1.484848484848499
 49
0.0
 74
     0
 49
-1.484848484848499
 74
     0
  0
LTYPE
  5
33
330
5
100
AcDbSymbolTableRecord
100
AcDbLinetypeTableRecord
  2
DOT2
 70
     0
  3
CADPAC LINETYPE
 72
    65
 73
     2
 40
1.113636363636374
 49
0.0
 74
     0
 49
-1.113636363636374
 74
     0
  0
LTYPE
  5
34
330
5
100
AcDbSymbolTableRecord
100
AcDbLinetypeTableRecord
  2
CENTERX2
 70
     0
  3
CADPAC LINETYPE
 72
    65
 73
     4
 40
6.363636363636374
 49
2.651515151515156
 74
     0
 49
-1.325757575757578
 74
     0
 49
1.060606060606062
 74
     0
 49
-1.325757575757578
 74
     0
  0
LTYPE
  5
35
330
5
100
AcDbSymbolTableRecord
100
AcDbLinetypeTableRecord
  2
CENTER
 70
     0
  3
CADPAC LINETYPE
 72
    65
 73
     4
 40
4.878787878787887
 49
2.121212121212125
 74
     0
 49
-1.060606060606062
 74
     0
 49
0.6363636363636374
 74
     0
 49
-1.060606060606062
 74
     0
  0
LTYPE
  5
36
330
5
100
AcDbSymbolTableRecord
100
AcDbLinetypeTableRecord
  2
CENTER2
 70
     0
  3
CADPAC LINETYPE
 72
    65
 73
     4
 40
3.393939393939399
 49
1.590909090909094
 74
     0
 49
-0.7954545454545468
 74
     0
 49
0.2121212121212125
 74
     0
 49
-0.7954545454545468
 74
     0
  0
LTYPE
  5
37
330
5
100
AcDbSymbolTableRecord
100
AcDbLinetypeTableRecord
  2
DASHDOTX2
 70
     0
  3
CADPAC LINETYPE
 72
    65
 73
     4
 40
10.18181818181816
 49
5.090909090909094
 74
     0
 49
-1.696969696969688
 74
     0
 49
1.696969696969688
 74
     0
 49
-1.696969696969688
 74
     0
  0
LTYPE
  5
38
330
5
100
AcDbSymbolTableRecord
100
AcDbLinetypeTableRecord
  2
DASHDOT
 70
     0
  3
CADPAC LINETYPE
 72
    65
 73
     4
 40
5.090909090909065
 49
2.545454545454533
 74
     0
 49
-0.8484848484848442
 74
     0
 49
0.8484848484848442
 74
     0
 49
-0.8484848484848442
 74
     0
  0
LTYPE
  5
39
330
5
100
AcDbSymbolTableRecord
100
AcDbLinetypeTableRecord
  2
DASHDOT2
 70
     0
  3
CADPAC LINETYPE
 72
    65
 73
     4
 40
3.26666666666665
 49
1.909090909090899
 74
     0
 49
-0.6363636363636331
 74
     0
 49
0.0848484848484844
 74
     0
 49
-0.6363636363636331
 74
     0
  0
LTYPE
  5
3A
330
5
100
AcDbSymbolTableRecord
100
AcDbLinetypeTableRecord
  2
DIVIDEX2
 70
     0
  3
CADPAC LINETYPE
 72
    65
 73
     6
 40
13.57575757575754
 49
5.090909090909094
 74
     0
 49
-1.696969696969688
 74
     0
 49
1.696969696969688
 74
     0
 49
-1.696969696969688
 74
     0
 49
1.696969696969688
 74
     0
 49
-1.696969696969688
 74
     0
  0
LTYPE
  5
3B
330
5
100
AcDbSymbolTableRecord
100
AcDbLinetypeTableRecord
  2
DIVIDE
 70
     0
  3
CADPAC LINETYPE
 72
    65
 73
     6
 40
6.787878787878753
 49
2.545454545454533
 74
     0
 49
-0.8484848484848442
 74
     0
 49
0.8484848484848442
 74
     0
 49
-0.8484848484848442
 74
     0
 49
0.8484848484848442
 74
     0
 49
-0.8484848484848442
 74
     0
  0
LTYPE
  5
3C
330
5
100
AcDbSymbolTableRecord
100
AcDbLinetypeTableRecord
  2
DIVIDE2
 70
     0
  3
CADPAC LINETYPE
 72
    65
 73
     6
 40
5.090909090909065
 49
1.909090909090899
 74
     0
 49
-0.6363636363636331
 74
     0
 49
0.6363636363636331
 74
     0
 49
-0.6363636363636331
 74
     0
 49
0.6363636363636331
 74
     0
 49
-0.6363636363636331
 74
     0
  0
LTYPE
  5
3D
330
5
100
AcDbSymbolTableRecord
100
AcDbLinetypeTableRecord
  2
BORDERX2
 70
     0
  3
CADPAC LINETYPE
 72
    65
 73
     6
 40
9.280303030303045
 49
2.651515151515156
 74
     0
 49
-1.325757575757578
 74
     0
 49
2.651515151515156
 74
     0
 49
-1.325757575757578
 74
     0
 49
0.0
 74
     0
 49
-1.325757575757578
 74
     0
  0
LTYPE
  5
3E
330
5
100
AcDbSymbolTableRecord
100
AcDbLinetypeTableRecord
  2
BORDER
 70
     0
  3
CADPAC LINETYPE
 72
    65
 73
     6
 40
7.424242424242436
 49
2.121212121212125
 74
     0
 49
-1.060606060606062
 74
     0
 49
2.121212121212125
 74
     0
 49
-1.060606060606062
 74
     0
 49
0.0
 74
     0
 49
-1.060606060606062
 74
     0
  0
LTYPE
  5
3F
330
5
100
AcDbSymbolTableRecord
100
AcDbLinetypeTableRecord
  2
BORDER2
 70
     0
  3
CADPAC LINETYPE
 72
    65
 73
     6
 40
5.51515151515153
 49
1.696969696969688
 74
     0
 49
-1.060606060606062
 74
     0
 49
0.6363636363636545
 74
     0
 49
-1.060606060606062
 74
     0
 49
0.0
 74
     0
 49
-1.060606060606062
 74
     0
  0
LTYPE
  5
40
330
5
100
AcDbSymbolTableRecord
100
AcDbLinetypeTableRecord
  2
PHANTOMX2
 70
     0
  3
CADPAC LINETYPE
 72
    65
 73
     6
 40
7.954545454545468
 49
2.651515151515156
 74
     0
 49
-1.060606060606062
 74
     0
 49
1.060606060606062
 74
     0
 49
-1.060606060606062
 74
     0
 49
1.060606060606062
 74
     0
 49
-1.060606060606062
 74
     0
  0
LTYPE
  5
41
330
5
100
AcDbSymbolTableRecord
100
AcDbLinetypeTableRecord
  2
PHANTOM
 70
     0
  3
CADPAC LINETYPE
 72
    65
 73
     6
 40
6.575757575757587
 49
2.121212121212125
 74
     0
 49
-1.060606060606062
 74
     0
 49
0.6363636363636374
 74
     0
 49
-1.060606060606062
 74
     0
 49
0.6363636363636374
 74
     0
 49
-1.060606060606062
 74
     0
  0
LTYPE
  5
42
330
5
100
AcDbSymbolTableRecord
100
AcDbLinetypeTableRecord
  2
PHANTOM2
 70
     0
  3
CADPAC LINETYPE
 72
    65
 73
     6
 40
5.62121212121213
 49
1.590909090909094
 74
     0
 49
-1.060606060606062
 74
     0
 49
0.424242424242425
 74
     0
 49
-1.060606060606062
 74
     0
 49
0.424242424242425
 74
     0
 49
-1.060606060606062
 74
     0
  0
LTYPE
  5
43
330
5
100
AcDbSymbolTableRecord
100
AcDbLinetypeTableRecord
  2
ACAD_ISO06W100
 70
     0
  3
CADPAC LINETYPE
 72
    65
 73
     8
 40
11.24242424242431
 49
5.090909090909094
 74
     0
 49
-1.060606060606062
 74
     0
 49
0.6363636363636545
 74
     0
 49
-1.060606060606062
 74
     0
 49
0.6363636363636545
 74
     0
 49
-1.060606060606062
 74
     0
 49
0.6363636363636545
 74
     0
 49
-1.060606060606062
 74
     0
  0
LTYPE
  5
44
330
5
100
AcDbSymbolTableRecord
100
AcDbLinetypeTableRecord
  2
ACAD_ISO13W100
 70
     0
  3
CADPAC LINETYPE
 72
    65
 73
     8
 40
8.484848484848499
 49
2.121212121212125
 74
     0
 49
-1.060606060606062
 74
     0
 49
2.121212121212125
 74
     0
 49
-1.060606060606062
 74
     0
 49
0.0
 74
     0
 49
-1.060606060606062
 74
     0
 49
0.0
 74
     0
 49
-1.060606060606062
 74
     0
  0
LTYPE
  5
45
330
5
100
AcDbSymbolTableRecord
100
AcDbLinetypeTableRecord
  2
ACAD_ISO14W100
 70
     0
  3
CADPAC LINETYPE
 72
    65
 73
     8
 40
6.363636363636374
 49
2.121212121212125
 74
     0
 49
-1.060606060606062
 74
     0
 49
0.0
 74
     0
 49
-1.060606060606062
 74
     0
 49
0.0
 74
     0
 49
-1.060606060606062
 74
     0
 49
0.0
 74
     0
 49
-1.060606060606062
 74
     0
  0
ENDTAB
  0
TABLE
  2
LAYER
  5
2
330
0
100
AcDbSymbolTable
 70
     1
  0
LAYER
  5
10
330
2
100
AcDbSymbolTableRecord
100
AcDbLayerTableRecord
  2
0
 70
     0
 62
     7
  6
CONTINUOUS
  0
ENDTAB
  0
TABLE
  2
STYLE
  5
3
330
0
100
AcDbSymbolTable
 70
     2
  0
STYLE
  5
11
330
3
100
AcDbSymbolTableRecord
100
AcDbTextStyleTableRecord
  2
STANDARD
 70
     0
 40
0.0
 41
1.0
 50
0.0
 71
     0
 42
0.2
  3
txt
  4

  0
STYLE
  5
5E
330
3
100
AcDbSymbolTableRecord
100
AcDbTextStyleTableRecord
  2
FDASTYLE0
 70
     0
 40
2.0
 41
0.7499999999999999
 50
0.0
 71
     0
 42
0.2
  3
txt.shx
  4
bigfont
  0
ENDTAB
  0
TABLE
  2
VIEW
  5
6
330
0
100
AcDbSymbolTable
 70
     0
  0
ENDTAB
  0
TABLE
  2
UCS
  5
7
330
0
100
AcDbSymbolTable
 70
     0
  0
ENDTAB
  0
TABLE
  2
APPID
  5
9
330
0
100
AcDbSymbolTable
 70
     2
  0
APPID
  5
12
330
9
100
AcDbSymbolTableRecord
100
AcDbRegAppTableRecord
  2
ACAD
 70
     0
  0
APPID
  5
2A
330
9
100
AcDbSymbolTableRecord
100
AcDbRegAppTableRecord
  2
DAFUSIONOUT
 70
     0
  0
ENDTAB
  0
TABLE
  2
DIMSTYLE
  5
A
330
0
100
AcDbSymbolTable
 70
     1
  0
DIMSTYLE
105
27
330
A
100
AcDbSymbolTableRecord
100
AcDbDimStyleTableRecord
  2
STANDARD
 70
     0
  3

  4

  5

  6

  7

 40
1.0
 41
0.18
 42
0.0625
 43
0.38
 44
0.18
 45
0.0
 46
0.0
 47
0.0
 48
0.0
140
0.18
141
0.09
142
0.0
143
25.4
144
1.0
145
0.0
146
1.0
147
0.09
 71
     0
 72
     0
 73
     1
 74
     1
 75
     0
 76
     0
 77
     0
 78
     0
170
     0
171
     2
172
     0
173
     0
174
     0
175
     0
176
     0
177
     0
178
     0
270
     2
271
     4
272
     4
273
     2
274
     2
340
11
275
     0
280
     0
281
     0
282
     0
283
     1
284
     0
285
     0
286
     0
287
     3
288
     0
  0
ENDTAB
  0
TABLE
  2
BLOCK_RECORD
  5
1
330
0
100
AcDbSymbolTable
 70
     6
  0
BLOCK_RECORD
  5
1F
330
1
100
AcDbSymbolTableRecord
100
AcDbBlockTableRecord
  2
*MODEL_SPACE
  0
BLOCK_RECORD
  5
1B
330
1
100
AcDbSymbolTableRecord
100
AcDbBlockTableRecord
  2
*PAPER_SPACE
  0
BLOCK_RECORD
  5
47
330
1
100
AcDbSymbolTableRecord
100
AcDbBlockTableRecord
  2
DA_IMAGEDIMGROUP_1
  0
BLOCK_RECORD
  5
4A
330
1
100
AcDbSymbolTableRecord
100
AcDbBlockTableRecord
  2
DA_IMAGEDIMGROUP_2
  0
BLOCK_RECORD
  5
4D
330
1
100
AcDbSymbolTableRecord
100
AcDbBlockTableRecord
  2
DA_IMAGEDIMGROUP_3
  0
BLOCK_RECORD
  5
50
330
1
100
AcDbSymbolTableRecord
100
AcDbBlockTableRecord
  2
DA_IMAGEDIMGROUP_4
  0
BLOCK_RECORD
  5
55
330
1
100
AcDbSymbolTableRecord
100
AcDbBlockTableRecord
  2
_OPEN30
  0
ENDTAB
  0
ENDSEC
  0
SECTION
  2
BLOCKS
  0
BLOCK
  5
20
330
1F
100
AcDbEntity
  8
0
100
AcDbBlockBegin
  2
*MODEL_SPACE
 70
     0
 71
     0
 10
0.0
 20
0.0
 30
0.0
  3
*MODEL_SPACE
  1

  0
ENDBLK
  5
21
330
1F
100
AcDbEntity
  8
0
100
AcDbBlockEnd
  0
BLOCK
  5
1C
330
1B
100
AcDbEntity
 67
     1
  8
0
100
AcDbBlockBegin
  2
*PAPER_SPACE
 70
     0
 71
     0
 10
0.0
 20
0.0
 30
0.0
  3
*PAPER_SPACE
  1

  0
ENDBLK
  5
1D
330
1B
100
AcDbEntity
 67
     1
  8
0
100
AcDbBlockEnd
  0
BLOCK
  5
48
330
47
100
AcDbEntity
  8
0
100
AcDbBlockBegin
  2
DA_IMAGEDIMGROUP_1
 70
     0
 71
     0
 10
0.0
 20
0.0
 30
0.0
  3
DA_IMAGEDIMGROUP_1
  1

  0
LINE
  5
53
330
47
100
AcDbEntity
  8
0
  6
CONTINUOUS
 62
     9
100
AcDbLine
 10
-38.77907977620969
 20
-7.074730889683136
 30
0.0
 11
-22.27004596523344
 21
0.0982603014478731
 31
0.0
  0
LINE
  5
54
330
47
100
AcDbEntity
  8
0
  6
CONTINUOUS
 62
     9
100
AcDbLine
 10
-10.55637841578849
 20
5.187718298204938
 30
0.0
 11
-22.27004596523344
 21
0.0982603014478731
 31
0.0
  0
INSERT
  5
5B
330
47
100
AcDbEntity
  8
0
 62
     9
100
AcDbBlockReference
  2
_OPEN30
 10
-22.27004596523344
 20
0.0982603014478731
 30
0.0
 41
1.500001393912182
 42
1.499994636989232
 50
203.4844090998412
  0
LINE
  5
5C
330
47
100
AcDbEntity
  8
0
  6
CONTINUOUS
 62
     9
100
AcDbLine
 10
-41.07200113884528
 20
-8.070979666229109
 30
0.0
 11
-38.77907977620969
 21
-7.074730889683136
 31
0.0
  0
INSERT
  5
5D
330
47
100
AcDbEntity
  8
0
 62
     9
100
AcDbBlockReference
  2
_OPEN30
 10
-38.77907977620969
 20
-7.074730889683136
 30
0.0
 41
1.500001393912182
 42
1.499994636989232
 50
23.48440909984113
  0
TEXT
  5
5F
330
47
100
AcDbEntity
  8
0
 62
     7
100
AcDbText
 10
-19.22292817903839
 20
1.967355088703084
 30
0.0
 40
2.0
  1
φ18
 50
23.48440909984116
 41
0.7499999999999999
  7
FDASTYLE0
 72
     5
 11
-14.82051916277806
 21
3.880152739671353
 31
0.0
100
AcDbText
  0
TEXT
  5
60
330
47
100
AcDbEntity
  8
0
 62
     7
100
AcDbText
 10
-14.87998425405485
 20
5.271721603551056
 30
0.0
 40
1.3
  1
±0.2
 50
23.48440909984116
 41
0.7619047619047616
  7
FDASTYLE0
 72
     5
 11
-11.06456310662923
 21
6.929479567723556
 31
0.0
100
AcDbText
  0
ENDBLK
  5
49
330
47
100
AcDbEntity
  8
0
100
AcDbBlockEnd
  0
BLOCK
  5
4B
330
4A
100
AcDbEntity
  8
0
100
AcDbBlockBegin
  2
DA_IMAGEDIMGROUP_2
 70
     0
 71
     0
 10
0.0
 20
0.0
 30
0.0
  3
DA_IMAGEDIMGROUP_2
  1

  0
LINE
  5
61
330
4A
100
AcDbEntity
  8
0
  6
CONTINUOUS
 62
     9
100
AcDbLine
 10
-41.1933152572133
 20
7.180517092374102
 30
0.0
 11
-38.51490846745065
 21
4.50211030261145
 31
0.0
  0
LINE
  5
62
330
4A
100
AcDbEntity
  8
0
  6
CONTINUOUS
 62
     9
100
AcDbLine
 10
-45.6124571892985
 20
-3.488235294117631
 30
0.0
 11
-43.02456287072157
 21
-3.488235294117633
 31
0.0
  0
ARC
  5
63
330
4A
100
AcDbEntity
  8
0
  6
CONTINUOUS
 62
     9
100
AcDbCircle
 10
-30.52456287072158
 20
-3.488235294117633
 30
0.0
 40
14.58789431857692
100
AcDbArc
 50
134.9999999999999
 51
180.0
  0
INSERT
  5
64
330
4A
100
AcDbEntity
  8
0
 62
     9
100
AcDbBlockReference
  2
_OPEN30
 10
-40.83976186662002
 20
6.826963701780828
 30
0.0
 41
1.500001393912182
 42
1.499994636989232
 50
47.9457206545512
  0
INSERT
  5
65
330
4A
100
AcDbEntity
  8
0
 62
     9
100
AcDbBlockReference
  2
_OPEN30
 10
-45.1124571892985
 20
-3.488235294117631
 30
0.0
 41
1.500001393912182
 42
1.499994636989232
 50
267.0542793454486
  0
TEXT
  5
66
330
4A
100
AcDbEntity
  8
0
 62
     7
100
AcDbText
 10
-45.38239985802434
 20
0.068341012850043
 30
0.0
 40
2.0
  1
45°
 50
67.49999999999997
 41
0.7499999999999992
  7
FDASTYLE0
 72
     5
 11
-43.54551938267191
 21
4.502962768904215
 31
0.0
100
AcDbText
  0
ENDBLK
  5
4C
330
4A
100
AcDbEntity
  8
0
100
AcDbBlockEnd
  0
BLOCK
  5
4E
330
4D
100
AcDbEntity
  8
0
100
AcDbBlockBegin
  2
DA_IMAGEDIMGROUP_3
 70
     0
 71
     0
 10
0.0
 20
0.0
 30
0.0
  3
DA_IMAGEDIMGROUP_3
  1

  0
LINE
  5
67
330
4D
100
AcDbEntity
  8
0
  6
CONTINUOUS
 62
     9
100
AcDbLine
 10
-19.85581048422988
 20
7.180517092374102
 30
0.0
 11
-22.53421727399254
 21
4.502110302611443
 31
0.0
  0
ARC
  5
68
330
4D
100
AcDbEntity
  8
0
  6
CONTINUOUS
 62
     9
100
AcDbCircle
 10
-30.5245628707216
 20
-3.488235294117622
 30
0.0
 40
14.58789431857692
100
AcDbArc
 50
45.0
 51
134.9999999999999
  0
INSERT
  5
69
330
4D
100
AcDbEntity
  8
0
 62
     9
100
AcDbBlockReference
  2
_OPEN30
 10
-20.20936387482315
 20
6.826963701780828
 30
0.0
 41
1.500001393912182
 42
1.499994636989232
 50
317.9457206545514
  0
INSERT
  5
6A
330
4D
100
AcDbEntity
  8
0
 62
     9
100
AcDbBlockReference
  2
_OPEN30
 10
-40.83976186662004
 20
6.826963701780844
 30
0.0
 41
1.500001393912182
 42
1.499994636989232
 50
222.0542793454486
  0
TEXT
  5
6B
330
4D
100
AcDbEntity
  8
0
 62
     7
100
AcDbText
 10
-34.52456287072159
 20
11.5996590244593
 30
0.0
 40
2.0
  1
4-90°
 50
-0.0000000000000509
 41
0.7692307692307692
  7
FDASTYLE0
 72
     5
 11
-26.52456287072159
 21
11.5996590244593
 31
0.0
100
AcDbText
  0
ENDBLK
  5
4F
330
4D
100
AcDbEntity
  8
0
100
AcDbBlockEnd
  0
BLOCK
  5
51
330
50
100
AcDbEntity
  8
0
100
AcDbBlockBegin
  2
DA_IMAGEDIMGROUP_4
 70
     0
 71
     0
 10
0.0
 20
0.0
 30
0.0
  3
DA_IMAGEDIMGROUP_4
  1

  0
LINE
  5
6C
330
50
100
AcDbEntity
  8
0
  6
CONTINUOUS
 62
     9
100
AcDbLine
 10
43.32556561085973
 20
-14.88823529411763
 30
0.0
 11
43.32556561085973
 21
-18.98823529411765
 31
0.0
  0
LINE
  5
6D
330
50
100
AcDbEntity
  8
0
  6
CONTINUOUS
 62
     9
100
AcDbLine
 10
38.72556561085973
 20
-6.188235294117629
 30
0.0
 11
38.72556561085973
 21
-18.98823529411765
 31
0.0
  0
LINE
  5
6E
330
50
100
AcDbEntity
  8
0
  6
CONTINUOUS
 62
     9
100
AcDbLine
 10
38.72556561085973
 20
-18.48823529411765
 30
0.0
 11
43.32556561085973
 21
-18.48823529411765
 31
0.0
  0
LINE
  5
6F
330
50
100
AcDbEntity
  8
0
  6
CONTINUOUS
 62
     9
100
AcDbLine
 10
28.42556561085972
 20
-18.48823529411765
 30
0.0
 11
38.72556561085973
 21
-18.48823529411765
 31
0.0
  0
INSERT
  5
70
330
50
100
AcDbEntity
  8
0
 62
     9
100
AcDbBlockReference
  2
_OPEN30
 10
38.72556561085973
 20
-18.48823529411765
 30
0.0
 41
1.500001393912182
 42
1.499994636989232
 50
360.0
  0
LINE
  5
71
330
50
100
AcDbEntity
  8
0
  6
CONTINUOUS
 62
     9
100
AcDbLine
 10
45.82556561085973
 20
-18.48823529411765
 30
0.0
 11
43.32556561085973
 21
-18.48823529411765
 31
0.0
  0
INSERT
  5
72
330
50
100
AcDbEntity
  8
0
 62
     9
100
AcDbBlockReference
  2
_OPEN30
 10
43.32556561085973
 20
-18.48823529411765
 30
0.0
 41
1.500001393912182
 42
1.499994636989232
 50
180.0
  0
TEXT
  5
73
330
50
100
AcDbEntity
  8
0
 62
     7
100
AcDbText
 10
28.92556561085972
 20
-17.98823529411765
 30
0.0
 40
2.0
  1
4.6
 41
0.8000000000000002
  7
FDASTYLE0
 72
     5
 11
33.72556561085973
 21
-17.98823529411765
 31
0.0
100
AcDbText
  0
TEXT
  5
74
330
50
100
AcDbEntity
  8
0
 62
     7
100
AcDbText
 10
34.22556561085973
 20
-16.68823529411765
 30
0.0
 40
1.3
  1
±0.1
 41
0.7619047619047624
  7
FDASTYLE0
 72
     5
 11
38.38556561085973
 21
-16.68823529411765
 31
0.0
100
AcDbText
  0
ENDBLK
  5
52
330
50
100
AcDbEntity
  8
0
100
AcDbBlockEnd
  0
BLOCK
  5
56
330
55
100
AcDbEntity
  8
0
100
AcDbBlockBegin
  2
_OPEN30
 70
     0
 71
     0
 10
0.0
 20
0.0
 30
0.0
  3
_OPEN30
  1

  0
LINE
  5
58
330
55
100
AcDbEntity
  8
0
  6
BYBLOCK
 62
     0
100
AcDbLine
 10
-1.0
 20
0.267949
 30
0.0
 11
0.0
 21
0.0
 31
0.0
  0
LINE
  5
59
330
55
100
AcDbEntity
  8
0
  6
BYBLOCK
 62
     0
100
AcDbLine
 10
0.0
 20
0.0
 30
0.0
 11
-1.0
 21
-0.267949
 31
0.0
  0
LINE
  5
5A
330
55
100
AcDbEntity
  8
0
  6
BYBLOCK
 62
     0
100
AcDbLine
 10
0.0
 20
0.0
 30
0.0
 11
-1.0
 21
0.0
 31
0.0
  0
ENDBLK
  5
57
330
55
100
AcDbEntity
  8
0
100
AcDbBlockEnd
  0
ENDSEC
  0
SECTION
  2
ENTITIES
  0
LINE
  5
75
330
1F
100
AcDbEntity
  8
0
  6
CENTER
 62
     9
100
AcDbLine
 10
12.22556561085973
 20
-3.48823529411764
 30
0.0
 11
44.32556561085973
 21
-3.48823529411764
 31
0.0
  0
LINE
  5
76
330
1F
100
AcDbEntity
  8
0
  6
CENTER
 62
     9
100
AcDbLine
 10
38.52556561085974
 20
-1.538235294117623
 30
0.0
 11
41.42556561085973
 21
-1.538235294117623
 31
0.0
  0
LINE
  5
77
330
1F
100
AcDbEntity
  8
0
  6
CENTER
 62
     9
100
AcDbLine
 10
38.52556561085974
 20
-5.438235294117629
 30
0.0
 11
41.42556561085973
 21
-5.438235294117629
 31
0.0
  0
CIRCLE
  5
78
330
1F
100
AcDbEntity
  8
0
  6
CENTER
 62
     9
100
AcDbCircle
 10
-30.52456287072157
 20
-3.488235294117633
 30
0.0
 40
9.0
  0
LINE
  5
79
330
1F
100
AcDbEntity
  8
0
  6
CENTER
 62
     9
100
AcDbLine
 10
-35.61577066458581
 20
-8.579443087981819
 30
0.0
 11
-38.16135507685739
 21
-11.12502750025339
 31
0.0
  0
LINE
  5
7A
330
1F
100
AcDbEntity
  8
0
  6
CENTER
 62
     9
100
AcDbLine
 10
-25.43335507685739
 20
1.602972499746596
 30
0.0
 11
-22.88777066458581
 21
4.148556912018169
 31
0.0
  0
LINE
  5
7B
330
1F
100
AcDbEntity
  8
0
  6
CENTER
 62
     9
100
AcDbLine
 10
-35.61577066458581
 20
1.602972499746606
 30
0.0
 11
-38.16135507685738
 21
4.148556912018176
 31
0.0
  0
LINE
  5
7C
330
1F
100
AcDbEntity
  8
0
  6
CENTER
 62
     9
100
AcDbLine
 10
-25.43335507685735
 20
-8.579443087981819
 30
0.0
 11
-22.88777066458577
 21
-11.12502750025339
 31
0.0
  0
LINE
  5
7D
330
1F
100
AcDbEntity
  8
0
  6
CENTER
 62
     9
100
AcDbLine
 10
41.70138061009819
 20
5.511764705882367
 30
0.0
 11
47.8837672393642
 21
5.511764705882367
 31
0.0
  0
LINE
  5
7E
330
1F
100
AcDbEntity
  8
0
  6
CENTER
 62
     9
100
AcDbLine
 10
41.70138061009819
 20
-12.48823529411765
 30
0.0
 11
47.8837672393642
 21
-12.48823529411765
 31
0.0
  0
LINE
  5
7F
330
1F
100
AcDbEntity
  8
0
  6
DIVIDE
 62
     9
100
AcDbLine
 10
38.72556561085973
 20
-1.288235294117623
 30
0.0
 11
38.72556561085973
 21
-5.688235294117629
 31
0.0
  0
LINE
  5
80
330
1F
100
AcDbEntity
  8
0
  6
DIVIDE
 62
     9
100
AcDbLine
 10
38.72556561085973
 20
-1.288235294117623
 30
0.0
 11
41.22556561085973
 21
-1.288235294117623
 31
0.0
  0
LINE
  5
81
330
1F
100
AcDbEntity
  8
0
  6
DIVIDE
 62
     9
100
AcDbLine
 10
38.72556561085973
 20
-5.688235294117629
 30
0.0
 11
41.22556561085973
 21
-5.688235294117629
 31
0.0
  0
LINE
  5
82
330
1F
100
AcDbEntity
  8
0
  6
DIVIDE
 62
     9
100
AcDbLine
 10
41.22556561085973
 20
-1.288235294117623
 30
0.0
 11
41.22556561085973
 21
-5.688235294117629
 31
0.0
  0
LINE
  5
83
330
1F
100
AcDbEntity
  8
0
  6
DASHED2
 62
     9
100
AcDbLine
 10
42.52556561085973
 20
3.51176470588236
 30
0.0
 11
43.32556561085973
 21
3.51176470588236
 31
0.0
  0
LINE
  5
84
330
1F
100
AcDbEntity
  8
0
  6
DASHED2
 62
     9
100
AcDbLine
 10
42.52556561085973
 20
3.51176470588236
 30
0.0
 11
42.52556561085973
 21
-10.48823529411764
 31
0.0
  0
LINE
  5
85
330
1F
100
AcDbEntity
  8
0
  6
DASHED2
 62
     9
100
AcDbLine
 10
43.32556561085973
 20
-10.48823529411764
 30
0.0
 11
42.52556561085973
 21
-10.48823529411764
 31
0.0
  0
CIRCLE
  5
86
330
1F
100
AcDbEntity
  8
0
  6
CONTINUOUS
 62
     9
100
AcDbCircle
 10
-36.88852390140052
 20
-9.852196324796541
 30
0.0
 40
1.0
  0
CIRCLE
  5
87
330
1F
100
AcDbEntity
  8
0
  6
CONTINUOUS
 62
     9
100
AcDbCircle
 10
-24.16060184004267
 20
-9.852196324796534
 30
0.0
 40
1.0
  0
CIRCLE
  5
88
330
1F
100
AcDbEntity
  8
0
  6
CONTINUOUS
 62
     9
100
AcDbCircle
 10
-24.16060184004268
 20
2.875725736561318
 30
0.0
 40
1.0
  0
CIRCLE
  5
89
330
1F
100
AcDbEntity
  8
0
  6
CONTINUOUS
 62
     9
100
AcDbCircle
 10
-36.88852390140053
 20
2.875725736561311
 30
0.0
 40
1.0
  0
LINE
  5
8A
330
1F
100
AcDbEntity
  8
0
  6
CONTINUOUS
 62
     9
100
AcDbLine
 10
-42.11759890780107
 20
-20.357553675266
 30
0.0
 11
-7.147248243559716
 21
-20.357553675266
 31
0.0
  0
LINE
  5
8B
330
1F
100
AcDbEntity
  8
0
  6
CONTINUOUS
 62
     9
100
AcDbLine
 10
-37.24504478789741
 20
-10.56842007664699
 30
0.0
 11
-42.11759890780107
 21
-20.357553675266
 31
0.0
  0
INSERT
  5
8C
330
1F
100
AcDbEntity
  8
0
 62
     9
100
AcDbBlockReference
  2
_OPEN30
 10
-37.24504478789741
 20
-10.56842007664699
 30
0.0
 41
1.500001393912182
 42
1.499994636989232
 50
63.53811364069083
  0
LINE
  5
8D
330
1F
100
AcDbEntity
  8
0
  6
CONTINUOUS
 62
     3
100
AcDbLine
 10
13.22556561085973
 20
-1.98823529411764
 30
0.0
 11
13.22556561085973
 21
-3.48823529411764
 31
0.0
  0
LINE
  5
8E
330
1F
100
AcDbEntity
  8
0
  6
CONTINUOUS
 62
     3
100
AcDbLine
 10
19.82556561085973
 20
-1.48823529411764
 30
0.0
 11
19.82556561085973
 21
-1.98823529411764
 31
0.0
  0
LINE
  5
8F
330
1F
100
AcDbEntity
  8
0
  6
CONTINUOUS
 62
     3
100
AcDbLine
 10
20.22556561085973
 20
0.01176470588236
 30
0.0
 11
20.22556561085973
 21
-3.48823529411764
 31
0.0
  0
LINE
  5
90
330
1F
100
AcDbEntity
  8
0
  6
CONTINUOUS
 62
     3
100
AcDbLine
 10
19.82556561085973
 20
-1.48823529411764
 30
0.0
 11
20.22556561085973
 21
-1.48823529411764
 31
0.0
  0
LINE
  5
91
330
1F
100
AcDbEntity
  8
0
  6
CONTINUOUS
 62
     3
100
AcDbLine
 10
13.22556561085973
 20
-5.48823529411764
 30
0.0
 11
13.22556561085973
 21
-3.48823529411764
 31
0.0
  0
LINE
  5
92
330
1F
100
AcDbEntity
  8
0
  6
CONTINUOUS
 62
     3
100
AcDbLine
 10
13.22556561085973
 20
-5.48823529411764
 30
0.0
 11
20.22556561085973
 21
-5.48823529411764
 31
0.0
  0
LINE
  5
93
330
1F
100
AcDbEntity
  8
0
  6
CONTINUOUS
 62
     3
100
AcDbLine
 10
13.22556561085973
 20
-1.98823529411764
 30
0.0
 11
19.82556561085973
 21
-1.98823529411764
 31
0.0
  0
LINE
  5
94
330
1F
100
AcDbEntity
  8
0
  6
CONTINUOUS
 62
     3
100
AcDbLine
 10
20.22556561085973
 20
-6.98823529411764
 30
0.0
 11
20.22556561085973
 21
-3.48823529411764
 31
0.0
  0
LINE
  5
95
330
1F
100
AcDbEntity
  8
0
  6
CONTINUOUS
 62
     3
100
AcDbLine
 10
20.22556561085973
 20
0.01176470588236
 30
0.0
 11
20.82556561085973
 21
0.01176470588236
 31
0.0
  0
LINE
  5
96
330
1F
100
AcDbEntity
  8
0
  6
CONTINUOUS
 62
     3
100
AcDbLine
 10
20.22556561085973
 20
-6.98823529411764
 30
0.0
 11
20.82556561085973
 21
-6.98823529411764
 31
0.0
  0
LINE
  5
97
330
1F
100
AcDbEntity
  8
0
  6
CONTINUOUS
 62
     3
100
AcDbLine
 10
20.82556561085973
 20
0.26176470588236
 30
0.0
 11
20.82556561085973
 21
-7.23823529411764
 31
0.0
  0
LINE
  5
98
330
1F
100
AcDbEntity
  8
0
  6
CONTINUOUS
 62
     3
100
AcDbLine
 10
20.82556561085973
 20
0.26176470588236
 30
0.0
 11
21.32556561085973
 21
0.26176470588236
 31
0.0
  0
LINE
  5
99
330
1F
100
AcDbEntity
  8
0
  6
CONTINUOUS
 62
     3
100
AcDbLine
 10
20.82556561085973
 20
-7.23823529411764
 30
0.0
 11
21.32556561085973
 21
-7.23823529411764
 31
0.0
  0
LINE
  5
9A
330
1F
100
AcDbEntity
  8
0
  6
CONTINUOUS
 62
     3
100
AcDbLine
 10
21.72556561085973
 20
0.51176470588236
 30
0.0
 11
23.82556561085973
 21
0.51176470588236
 31
0.0
  0
LINE
  5
9B
330
1F
100
AcDbEntity
  8
0
  6
CONTINUOUS
 62
     3
100
AcDbLine
 10
21.32556561085973
 20
0.26176470588236
 30
0.0
 11
21.32556561085973
 21
-3.48823529411764
 31
0.0
  0
LINE
  5
9C
330
1F
100
AcDbEntity
  8
0
  6
CONTINUOUS
 62
     3
100
AcDbLine
 10
21.72556561085973
 20
0.51176470588236
 30
0.0
 11
21.32556561085973
 21
0.1117647058823685
 31
0.0
  0
LINE
  5
9D
330
1F
100
AcDbEntity
  8
0
  6
CONTINUOUS
 62
     3
100
AcDbLine
 10
21.72556561085973
 20
-7.48823529411764
 30
0.0
 11
23.82556561085973
 21
-7.48823529411764
 31
0.0
  0
LINE
  5
9E
330
1F
100
AcDbEntity
  8
0
  6
CONTINUOUS
 62
     3
100
AcDbLine
 10
21.32556561085973
 20
-7.23823529411764
 30
0.0
 11
21.32556561085973
 21
-3.48823529411764
 31
0.0
  0
LINE
  5
9F
330
1F
100
AcDbEntity
  8
0
  6
CONTINUOUS
 62
     3
100
AcDbLine
 10
21.72556561085973
 20
-7.48823529411764
 30
0.0
 11
21.32556561085973
 21
-7.088235294117634
 31
0.0
  0
LINE
  5
A0
330
1F
100
AcDbEntity
  8
0
  6
CONTINUOUS
 62
     3
100
AcDbLine
 10
43.32556561085973
 20
7.411764705882366
 30
0.0
 11
43.32556561085973
 21
3.611764705882369
 31
0.0
  0
LINE
  5
A1
330
1F
100
AcDbEntity
  8
0
  6
CONTINUOUS
 62
     3
100
AcDbLine
 10
41.82556561085973
 20
-1.588235294117634
 30
0.0
 11
41.82556561085973
 21
-5.388235294117632
 31
0.0
  0
LINE
  5
A2
330
1F
100
AcDbEntity
  8
0
  6
CONTINUOUS
 62
     3
100
AcDbLine
 10
43.32556561085973
 20
-14.38823529411763
 30
0.0
 11
43.22556561085973
 21
-14.48823529411764
 31
0.0
  0
LINE
  5
A3
330
1F
100
AcDbEntity
  8
0
  6
CONTINUOUS
 62
     3
100
AcDbLine
 10
43.32556561085973
 20
7.411764705882366
 30
0.0
 11
43.22556561085973
 21
7.51176470588236
 31
0.0
  0
LINE
  5
A4
330
1F
100
AcDbEntity
  8
0
  6
CONTINUOUS
 62
     3
100
AcDbLine
 10
43.32556561085973
 20
-14.38823529411763
 30
0.0
 11
43.32556561085973
 21
3.611764705882369
 31
0.0
  0
LINE
  5
A5
330
1F
100
AcDbEntity
  8
0
  6
CONTINUOUS
 62
     3
100
AcDbLine
 10
41.82556561085973
 20
-1.588235294117634
 30
0.0
 11
43.32556561085973
 21
-1.588235294117634
 31
0.0
  0
LINE
  5
A6
330
1F
100
AcDbEntity
  8
0
  6
CONTINUOUS
 62
     3
100
AcDbLine
 10
41.82556561085973
 20
-5.388235294117632
 30
0.0
 11
43.32556561085973
 21
-5.388235294117632
 31
0.0
  0
LINE
  5
A7
330
1F
100
AcDbEntity
  8
0
  6
CONTINUOUS
 62
     3
100
AcDbLine
 10
21.72556561085973
 20
0.51176470588236
 30
0.0
 11
21.72556561085973
 21
-7.48823529411764
 31
0.0
  0
CIRCLE
  5
A8
330
1F
100
AcDbEntity
  8
0
  6
CONTINUOUS
 62
     3
100
AcDbCircle
 10
-30.52456287072157
 20
-3.488235294117633
 30
0.0
 40
11.0
  0
CIRCLE
  5
A9
330
1F
100
AcDbEntity
  8
0
  6
CONTINUOUS
 62
     3
100
AcDbCircle
 10
-30.52456287072157
 20
-3.488235294117633
 30
0.0
 40
2.0
  0
LINE
  5
AA
330
1F
100
AcDbEntity
  8
0
  6
CONTINUOUS
 62
     3
100
AcDbLine
 10
-31.84743852625387
 20
-1.988235294117633
 30
0.0
 11
-29.20168721518928
 21
-1.988235294117633
 31
0.0
  0
CIRCLE
  5
AB
330
1F
100
AcDbEntity
  8
0
  6
CONTINUOUS
 62
     3
100
AcDbCircle
 10
-30.52456287072157
 20
-3.488235294117633
 30
0.0
 40
3.75
  0
CIRCLE
  5
AC
330
1F
100
AcDbEntity
  8
0
  6
CONTINUOUS
 62
     3
100
AcDbCircle
 10
-30.52456287072157
 20
-3.488235294117633
 30
0.0
 40
4.0
  0
CIRCLE
  5
AD
330
1F
100
AcDbEntity
  8
0
  6
CONTINUOUS
 62
     3
100
AcDbCircle
 10
-30.52456287072157
 20
-3.488235294117633
 30
0.0
 40
7.0
  0
LINE
  5
AE
330
1F
100
AcDbEntity
  8
0
  6
CONTINUOUS
 62
     3
100
AcDbLine
 10
-32.4245628707216
 20
5.511764705882388
 30
0.0
 11
-32.4245628707216
 21
7.346431290507869
 31
0.0
  0
ARC
  5
AF
330
1F
100
AcDbEntity
  8
0
  6
CONTINUOUS
 62
     3
100
AcDbCircle
 10
-30.5245628707216
 20
5.511764705882388
 30
0.0
 40
1.9
100
AcDbArc
 50
180.0
 51
360.0
  0
LINE
  5
B0
330
1F
100
AcDbEntity
  8
0
  6
CONTINUOUS
 62
     3
100
AcDbLine
 10
-28.6245628707216
 20
5.511764705882388
 30
0.0
 11
-28.6245628707216
 21
7.346431290507869
 31
0.0
  0
ARC
  5
B1
330
1F
100
AcDbEntity
  8
0
  6
CONTINUOUS
 62
     3
100
AcDbCircle
 10
-30.5245628707216
 20
-12.48823529411761
 30
0.0
 40
1.9
100
AcDbArc
 50
0.0
 51
180.0
  0
LINE
  5
B2
330
1F
100
AcDbEntity
  8
0
  6
CONTINUOUS
 62
     3
100
AcDbLine
 10
-32.4245628707216
 20
-12.48823529411761
 30
0.0
 11
-32.4245628707216
 21
-14.32290187874309
 31
0.0
  0
LINE
  5
B3
330
1F
100
AcDbEntity
  8
0
  6
CONTINUOUS
 62
     3
100
AcDbLine
 10
-28.6245628707216
 20
-12.48823529411761
 30
0.0
 11
-28.6245628707216
 21
-14.32290187874309
 31
0.0
  0
CIRCLE
  5
B4
330
1F
100
AcDbEntity
  8
0
  6
CONTINUOUS
 62
     3
100
AcDbCircle
 10
-36.8885628707216
 20
-9.852235294117609
 30
0.0
 40
0.8
  0
CIRCLE
  5
B5
330
1F
100
AcDbEntity
  8
0
  6
CONTINUOUS
 62
     3
100
AcDbCircle
 10
-24.1605628707216
 20
-9.852235294117609
 30
0.0
 40
0.8
  0
CIRCLE
  5
B6
330
1F
100
AcDbEntity
  8
0
  6
CONTINUOUS
 62
     3
100
AcDbCircle
 10
-21.52450775977922
 20
-3.488235294117612
 30
0.0
 40
0.8
  0
CIRCLE
  5
B7
330
1F
100
AcDbEntity
  8
0
  6
CONTINUOUS
 62
     3
100
AcDbCircle
 10
-24.1605628707216
 20
2.875764705882393
 30
0.0
 40
0.8
  0
CIRCLE
  5
B8
330
1F
100
AcDbEntity
  8
0
  6
CONTINUOUS
 62
     3
100
AcDbCircle
 10
-36.8885628707216
 20
2.875764705882393
 30
0.0
 40
0.8
  0
CIRCLE
  5
B9
330
1F
100
AcDbEntity
  8
0
  6
CONTINUOUS
 62
     3
100
AcDbCircle
 10
-39.52461798166398
 20
-3.488235294117612
 30
0.0
 40
0.8
  0
LINE
  5
BA
330
1F
100
AcDbEntity
  8
0
  6
CONTINUOUS
 62
     3
100
AcDbLine
 10
23.82556561085973
 20
-3.48823529411764
 30
0.0
 11
23.82556561085973
 21
3.211764705882363
 31
0.0
  0
LINE
  5
BB
330
1F
100
AcDbEntity
  8
0
  6
CONTINUOUS
 62
     3
100
AcDbLine
 10
24.62556561085973
 20
7.211764705882356
 30
0.0
 11
24.62556561085973
 21
-14.18823529411764
 31
0.0
  0
LINE
  5
BC
330
1F
100
AcDbEntity
  8
0
  6
CONTINUOUS
 62
     3
100
AcDbLine
 10
24.12556561085973
 20
3.51176470588236
 30
0.0
 11
24.62556561085964
 21
3.511764705882353
 31
0.0
  0
LINE
  5
BD
330
1F
100
AcDbEntity
  8
0
  6
CONTINUOUS
 62
     3
100
AcDbLine
 10
24.82556561085972
 20
7.511764705882367
 30
0.0
 11
40.97556561085973
 21
7.511764705882367
 31
0.0
  0
ARC
  5
BE
330
1F
100
AcDbEntity
  8
0
  6
CONTINUOUS
 62
     3
100
AcDbCircle
 10
24.12556561085973
 20
3.211764705882363
 30
0.0
 40
0.3
100
AcDbArc
 50
90.0
 51
180.0
  0
LINE
  5
BF
330
1F
100
AcDbEntity
  8
0
  6
CONTINUOUS
 62
     3
100
AcDbLine
 10
23.82556561085973
 20
-3.48823529411764
 30
0.0
 11
23.82556561085973
 21
-10.18823529411764
 31
0.0
  0
ARC
  5
C0
330
1F
100
AcDbEntity
  8
0
  6
CONTINUOUS
 62
     3
100
AcDbCircle
 10
24.12556561085973
 20
-10.18823529411764
 30
0.0
 40
0.3
100
AcDbArc
 50
180.0
 51
270.0
  0
LINE
  5
C1
330
1F
100
AcDbEntity
  8
0
  6
CONTINUOUS
 62
     3
100
AcDbLine
 10
24.12556561085973
 20
-10.48823529411764
 30
0.0
 11
24.62556561085973
 21
-10.48823529411764
 31
0.0
  0
LINE
  5
C2
330
1F
100
AcDbEntity
  8
0
  6
CONTINUOUS
 62
     3
100
AcDbLine
 10
24.82556561085973
 20
-14.48823529411764
 30
0.0
 11
40.97556561085973
 21
-14.48823529411764
 31
0.0
  0
LINE
  5
C3
330
1F
100
AcDbEntity
  8
0
  6
CONTINUOUS
 62
     3
100
AcDbLine
 10
41.07556561085974
 20
7.411764705882359
 30
0.0
 11
41.07556561085974
 21
-14.38823529411764
 31
0.0
  0
LINE
  5
C4
330
1F
100
AcDbEntity
  8
0
  6
CONTINUOUS
 62
     3
100
AcDbLine
 10
40.97556561085973
 20
7.511764705882367
 30
0.0
 11
41.07556561085974
 21
7.411764705882359
 31
0.0
  0
LINE
  5
C5
330
1F
100
AcDbEntity
  8
0
  6
CONTINUOUS
 62
     3
100
AcDbLine
 10
40.97556561085973
 20
-14.48823529411764
 30
0.0
 11
41.07556561085974
 21
-14.38823529411764
 31
0.0
  0
LINE
  5
C6
330
1F
100
AcDbEntity
  8
0
  6
CONTINUOUS
 62
     3
100
AcDbLine
 10
24.82556561085972
 20
-14.38823529411762
 30
0.0
 11
24.82556561085973
 21
-14.48823529411764
 31
0.0
  0
LINE
  5
C7
330
1F
100
AcDbEntity
  8
0
  6
CONTINUOUS
 62
     3
100
AcDbLine
 10
24.82556561085972
 20
-14.38823529411762
 30
0.0
 11
24.62556561085973
 21
-14.18823529411764
 31
0.0
  0
LINE
  5
C8
330
1F
100
AcDbEntity
  8
0
  6
CONTINUOUS
 62
     3
100
AcDbLine
 10
24.82556561085972
 20
7.411764705882344
 30
0.0
 11
24.82556561085973
 21
7.51176470588236
 31
0.0
  0
LINE
  5
C9
330
1F
100
AcDbEntity
  8
0
  6
CONTINUOUS
 62
     3
100
AcDbLine
 10
24.82556561085972
 20
7.411764705882344
 30
0.0
 11
24.62556561085973
 21
7.211764705882356
 31
0.0
  0
LINE
  5
CA
330
1F
100
AcDbEntity
  8
0
  6
CONTINUOUS
 62
     3
100
AcDbLine
 10
43.22556561085973
 20
7.51176470588236
 30
0.0
 11
41.12556561085972
 21
7.51176470588236
 31
0.0
  0
LINE
  5
CB
330
1F
100
AcDbEntity
  8
0
  6
CONTINUOUS
 62
     3
100
AcDbLine
 10
41.07556561085973
 20
7.01176470588236
 30
0.0
 11
41.12556561085972
 21
7.01176470588236
 31
0.0
  0
LINE
  5
CC
330
1F
100
AcDbEntity
  8
0
  6
CONTINUOUS
 62
     3
100
AcDbLine
 10
41.12556561085972
 20
7.51176470588236
 30
0.0
 11
41.12556561085972
 21
7.01176470588236
 31
0.0
  0
LINE
  5
CD
330
1F
100
AcDbEntity
  8
0
  6
CONTINUOUS
 62
     3
100
AcDbLine
 10
43.22556561085973
 20
-14.48823529411764
 30
0.0
 11
41.12556561085972
 21
-14.48823529411764
 31
0.0
  0
LINE
  5
CE
330
1F
100
AcDbEntity
  8
0
  6
CONTINUOUS
 62
     3
100
AcDbLine
 10
41.07556561085974
 20
-13.98823529411764
 30
0.0
 11
41.12556561085972
 21
-13.98823529411764
 31
0.0
  0
LINE
  5
CF
330
1F
100
AcDbEntity
  8
0
  6
CONTINUOUS
 62
     3
100
AcDbLine
 10
41.12556561085972
 20
-13.98823529411764
 30
0.0
 11
41.12556561085972
 21
-14.48823529411764
 31
0.0
  0
LINE
  5
D0
330
1F
100
AcDbEntity
  8
0
  6
CONTINUOUS
 62
     3
100
AcDbLine
 10
41.82556561085973
 20
-5.23823529411764
 30
0.0
 11
41.82556561085973
 21
-1.73823529411764
 31
0.0
  0
LINE
  5
D1
330
1F
100
AcDbEntity
  8
0
  6
CONTINUOUS
 62
     3
100
AcDbLine
 10
41.82556561085973
 20
-5.23823529411764
 30
0.0
 11
42.4746748084502
 21
-5.20421692255972
 31
0.0
  0
LINE
  5
D2
330
1F
100
AcDbEntity
  8
0
  6
CONTINUOUS
 62
     3
100
AcDbLine
 10
41.82556561085973
 20
-1.73823529411764
 30
0.0
 11
42.4746748084502
 21
-1.772253665675546
 31
0.0
  0
ARC
  5
D3
330
1F
100
AcDbEntity
  8
0
  6
CONTINUOUS
 62
     3
100
AcDbCircle
 10
42.44913566052431
 20
-4.716900950097664
 30
0.0
 40
0.487984738586589
100
AcDbArc
 50
273.0
 51
334.3008141437444
  0
ARC
  5
D4
330
1F
100
AcDbEntity
  8
0
  6
CONTINUOUS
 62
     3
100
AcDbCircle
 10
42.44913566052431
 20
-2.259569638137602
 30
0.0
 40
0.487984738586589
100
AcDbArc
 50
25.69918585625558
 51
86.99999999999997
  0
ARC
  5
D5
330
1F
100
AcDbEntity
  8
0
  6
CONTINUOUS
 62
     3
100
AcDbCircle
 10
38.62556561085972
 20
-3.48823529411764
 30
0.0
 40
4.5
100
AcDbArc
 50
341.3333333333333
 51
378.6666666666667
  0
LINE
  5
D6
330
1F
100
AcDbEntity
  8
0
  6
CONTINUOUS
 62
     3
100
AcDbLine
 10
-31.88667543029682
 20
-4.952697439428107
 30
0.0
 11
-33.04669295725023
 21
-5.263523198981218
 31
0.0
  0
LINE
  5
D7
330
1F
100
AcDbEntity
  8
0
  6
CONTINUOUS
 62
     3
100
AcDbLine
 10
-31.88667543029682
 20
-2.023773148807155
 30
0.0
 11
-33.04669295725023
 21
-1.712947389254044
 31
0.0
  0
ARC
  5
D8
330
1F
100
AcDbEntity
  8
0
  6
CONTINUOUS
 62
     3
100
AcDbCircle
 10
-32.96904724371947
 20
-5.553300946867939
 30
0.0
 40
0.3
100
AcDbArc
 50
105.0
 51
220.190648493798
  0
ARC
  5
D9
330
1F
100
AcDbEntity
  8
0
  6
CONTINUOUS
 62
     3
100
AcDbCircle
 10
-30.52456287072157
 20
-3.488235294117633
 30
0.0
 40
3.5
100
AcDbArc
 50
220.190648493798
 51
499.809351506202
  0
ARC
  5
DA
330
1F
100
AcDbEntity
  8
0
  6
CONTINUOUS
 62
     3
100
AcDbCircle
 10
-32.96904724371947
 20
-1.423169641367323
 30
0.0
 40
0.3
100
AcDbArc
 50
139.809351506202
 51
255.0
  0
LINE
  5
DB
330
1F
100
AcDbEntity
  8
0
  6
CONTINUOUS
 62
     3
100
AcDbLine
 10
-30.52456287072157
 20
-5.488235294117633
 30
0.0
 11
-30.52456287072157
 21
-5.768586144315908
 31
0.0
  0
LINE
  5
DC
330
1F
100
AcDbEntity
  8
0
  6
CONTINUOUS
 62
     3
100
AcDbLine
 10
-30.52456287072157
 20
-1.488235294117633
 30
0.0
 11
-30.52456287072157
 21
-1.207884443919358
 31
0.0
  0
ARC
  5
DD
330
1F
100
AcDbEntity
  8
0
  6
CONTINUOUS
 62
     3
100
AcDbCircle
 10
-30.22456287072157
 20
-5.768586144315908
 30
0.0
 40
0.3
100
AcDbArc
 50
180.0
 51
277.4947174539267
  0
ARC
  5
DE
330
1F
100
AcDbEntity
  8
0
  6
CONTINUOUS
 62
     3
100
AcDbCircle
 10
-30.22456287072157
 20
-1.207884443919358
 30
0.0
 40
0.3
100
AcDbArc
 50
82.50528254607332
 51
180.0
  0
ARC
  5
DF
330
1F
100
AcDbEntity
  8
0
  6
CONTINUOUS
 62
     3
100
AcDbCircle
 10
-30.52456287072157
 20
-3.488235294117633
 30
0.0
 40
2.6
100
AcDbArc
 50
277.4947174539267
 51
337.5420651127661
  0
ARC
  5
E0
330
1F
100
AcDbEntity
  8
0
  6
CONTINUOUS
 62
     3
100
AcDbCircle
 10
-30.52456287072157
 20
-3.488235294117633
 30
0.0
 40
2.6
100
AcDbArc
 50
22.45793488723382
 51
82.50528254607332
  0
ARC
  5
E1
330
1F
100
AcDbEntity
  8
0
  6
CONTINUOUS
 62
     3
100
AcDbCircle
 10
-28.39899431873128
 20
-4.366846886796612
 30
0.0
 40
0.3
100
AcDbArc
 50
337.5420651127661
 51
435.0367825666929
  0
ARC
  5
E2
330
1F
100
AcDbEntity
  8
0
  6
CONTINUOUS
 62
     3
100
AcDbCircle
 10
-28.39899431873128
 20
-2.609623701438654
 30
0.0
 40
0.3
100
AcDbArc
 50
284.9632174333071
 51
382.4579348872338
  0
LINE
  5
E3
330
1F
100
AcDbEntity
  8
0
  6
CONTINUOUS
 62
     3
100
AcDbLine
 10
-28.59237930456298
 20
-4.004633073611963
 30
0.0
 11
-28.32153465180713
 21
-4.077019351872824
 31
0.0
  0
LINE
  5
E4
330
1F
100
AcDbEntity
  8
0
  6
CONTINUOUS
 62
     3
100
AcDbLine
 10
-28.59237930456298
 20
-2.971837514623303
 30
0.0
 11
-28.32153465180713
 21
-2.899451236362442
 31
0.0
  0
CIRCLE
  5
E5
330
1F
100
AcDbEntity
  8
0
  6
CONTINUOUS
 62
     3
100
AcDbCircle
 10
-30.52456287072158
 20
5.511764705882371
 30
0.0
 40
1.75
  0
LINE
  5
E6
330
1F
100
AcDbEntity
  8
0
  6
CONTINUOUS
 62
     3
100
AcDbLine
 10
-29.74674539810459
 20
4.733947233265383
 30
0.0
 11
-31.30238034333854
 21
6.289582178499359
 31
0.0
  0
LINE
  5
E7
330
1F
100
AcDbEntity
  8
0
  6
CONTINUOUS
 62
     3
100
AcDbLine
 10
-29.74674539810459
 20
6.289582178499359
 30
0.0
 11
-31.30238034333854
 21
4.733947233265383
 31
0.0
  0
CIRCLE
  5
E8
330
1F
100
AcDbEntity
  8
0
  6
CONTINUOUS
 62
     3
100
AcDbCircle
 10
-30.52456287072158
 20
-12.48823529411763
 30
0.0
 40
1.75
  0
LINE
  5
E9
330
1F
100
AcDbEntity
  8
0
  6
CONTINUOUS
 62
     3
100
AcDbLine
 10
-29.74674539810459
 20
-13.26605276673462
 30
0.0
 11
-31.30238034333854
 21
-11.71041782150064
 31
0.0
  0
LINE
  5
EA
330
1F
100
AcDbEntity
  8
0
  6
CONTINUOUS
 62
     3
100
AcDbLine
 10
-29.74674539810459
 20
-11.71041782150064
 30
0.0
 11
-31.30238034333854
 21
-13.26605276673462
 31
0.0
  0
LINE
  5
EB
330
1F
100
AcDbEntity
  8
0
  6
CONTINUOUS
 62
     3
100
AcDbLine
 10
43.32556561085973
 20
4.511764705882413
 30
0.0
 11
45.92556561085966
 21
4.511764705882385
 31
0.0
  0
LINE
  5
EC
330
1F
100
AcDbEntity
  8
0
  6
CONTINUOUS
 62
     3
100
AcDbLine
 10
45.92556561085966
 20
4.511764705882385
 30
0.0
 11
46.32556561085971
 21
5.011764705882357
 31
0.0
  0
LINE
  5
ED
330
1F
100
AcDbEntity
  8
0
  6
CONTINUOUS
 62
     3
100
AcDbLine
 10
43.32556561085973
 20
6.511764705882399
 30
0.0
 11
45.92556561085976
 21
6.511764705882385
 31
0.0
  0
LINE
  5
EE
330
1F
100
AcDbEntity
  8
0
  6
CONTINUOUS
 62
     3
100
AcDbLine
 10
45.92556561085976
 20
6.511764705882385
 30
0.0
 11
46.32556561085974
 21
6.011764705882399
 31
0.0
  0
LINE
  5
EF
330
1F
100
AcDbEntity
  8
0
  6
CONTINUOUS
 62
     3
100
AcDbLine
 10
46.32556561085971
 20
5.011764705882357
 30
0.0
 11
46.32556561085974
 21
6.011764705882399
 31
0.0
  0
LINE
  5
F0
330
1F
100
AcDbEntity
  8
0
  6
CONTINUOUS
 62
     3
100
AcDbLine
 10
45.92556561085966
 20
4.511764705882385
 30
0.0
 11
45.92556561085966
 21
6.511764705882385
 31
0.0
  0
LINE
  5
F1
330
1F
100
AcDbEntity
  8
0
  6
CONTINUOUS
 62
     3
100
AcDbLine
 10
43.32556561085973
 20
-11.48823529411769
 30
0.0
 11
45.92556561085966
 21
-11.48823529411767
 31
0.0
  0
LINE
  5
F2
330
1F
100
AcDbEntity
  8
0
  6
CONTINUOUS
 62
     3
100
AcDbLine
 10
45.92556561085966
 20
-11.48823529411767
 30
0.0
 11
46.32556561085971
 21
-11.98823529411764
 31
0.0
  0
LINE
  5
F3
330
1F
100
AcDbEntity
  8
0
  6
CONTINUOUS
 62
     3
100
AcDbLine
 10
43.32556561085973
 20
-13.48823529411768
 30
0.0
 11
45.92556561085976
 21
-13.48823529411767
 31
0.0
  0
LINE
  5
F4
330
1F
100
AcDbEntity
  8
0
  6
CONTINUOUS
 62
     3
100
AcDbLine
 10
45.92556561085976
 20
-13.48823529411767
 30
0.0
 11
46.32556561085974
 21
-12.98823529411768
 31
0.0
  0
LINE
  5
F5
330
1F
100
AcDbEntity
  8
0
  6
CONTINUOUS
 62
     3
100
AcDbLine
 10
46.32556561085971
 20
-11.98823529411764
 30
0.0
 11
46.32556561085974
 21
-12.98823529411768
 31
0.0
  0
LINE
  5
F6
330
1F
100
AcDbEntity
  8
0
  6
CONTINUOUS
 62
     3
100
AcDbLine
 10
45.92556561085966
 20
-11.48823529411767
 30
0.0
 11
45.92556561085966
 21
-13.48823529411767
 31
0.0
  0
LINE
  5
F7
330
1F
100
AcDbEntity
  8
0
  6
CONTINUOUS
 62
     3
100
AcDbLine
 10
24.82556561085972
 20
7.411764705882344
 30
0.0
 11
24.82556561085972
 21
-14.48823529411764
 31
0.0
  0
TEXT
  5
F8
330
1F
100
AcDbEntity
  8
0
 62
     7
100
AcDbText
 10
17.18424600691852
 20
-21.54985529242233
 30
0.0
 40
2.0
  1
（ＰＩＮＩＯＮ　ＰＯＳＩＴＩＯＮ）
 41
0.6666666666666667
  7
FDASTYLE0
 72
     5
 11
44.38424600691852
 21
-21.54985529242233
 31
0.0
100
AcDbText
  0
TEXT
  5
F9
330
1F
100
AcDbEntity
  8
0
 62
     7
100
AcDbText
 10
47.82556561085973
 20
-8.283235294117638
 30
0.0
 40
2.0
  1
φ14
 50
90.0
 41
0.7499999999999996
  7
FDASTYLE0
 72
     5
 11
47.82556561085973
 21
-3.483235294117641
 31
0.0
100
AcDbText
  0
TEXT
  5
FA
330
1F
100
AcDbEntity
  8
0
 62
     7
100
AcDbText
 10
46.52556561085973
 20
-2.983235294117641
 30
0.0
 40
1.3
  1
+0.05
 50
90.0
 41
0.8000000000000005
  7
FDASTYLE0
 72
     5
 11
46.52556561085973
 21
2.216764705882362
 31
0.0
100
AcDbText
  0
TEXT
  5
FB
330
1F
100
AcDbEntity
  8
0
 62
     7
100
AcDbText
 10
47.92556561085973
 20
-2.983235294117641
 30
0.0
 40
1.3
  1
 0
 50
90.0
 41
0.7999999999999993
  7
FDASTYLE0
 72
     5
 11
47.92556561085973
 21
-0.9032352941176427
 31
0.0
100
AcDbText
  0
TEXT
  5
FC
330
1F
100
AcDbEntity
  8
0
 62
     7
100
AcDbText
 10
8.725565610859729
 20
8.210654705882366
 30
0.0
 40
2.0
  1
3.5
 50
90.0
 41
0.8000000000000002
  7
FDASTYLE0
 72
     5
 11
8.725565610859729
 21
13.01065470588237
 31
0.0
100
AcDbText
  0
TEXT
  5
FD
330
1F
100
AcDbEntity
  8
0
 62
     7
100
AcDbText
 10
7.818493714983235
 20
13.3319309586659
 30
0.0
 40
1.4
  1
±0.15
 50
90.0
 41
0.7692307692307691
  7
FDASTYLE0
 72
     5
 11
7.818493714983235
 21
18.9319309586659
 31
0.0
100
AcDbText
  0
TEXT
  5
FE
330
1F
100
AcDbEntity
  8
0
 62
     7
100
AcDbText
 10
4.725565610859729
 20
8.248654705882377
 30
0.0
 40
2.0
  1
φ4
 50
90.0
 41
0.7272727272727271
  7
FDASTYLE0
 72
     5
 11
4.725565610859729
 21
11.44865470588238
 31
0.0
100
AcDbText
  0
TEXT
  5
FF
330
1F
100
AcDbEntity
  8
0
 62
     7
100
AcDbText
 10
3.153065610859729
 20
11.38865470588238
 30
0.0
 40
1.4
  1
+0.005
 50
90.0
 41
0.8
  7
FDASTYLE0
 72
     5
 11
3.153065610859729
 21
18.10865470588238
 31
0.0
100
AcDbText
  0
TEXT
  5
100
330
1F
100
AcDbEntity
  8
0
 62
     7
100
AcDbText
 10
4.825565610859729
 20
11.38865470588238
 30
0.0
 40
1.4
  1
-0.015
 50
90.0
 41
0.8
  7
FDASTYLE0
 72
     5
 11
4.825565610859729
 21
18.10865470588238
 31
0.0
100
AcDbText
  0
TEXT
  5
101
330
1F
100
AcDbEntity
  8
0
 62
     7
100
AcDbText
 10
0.7255656108597287
 20
-5.08823529411764
 30
0.0
 40
2.0
  1
φ8
 50
90.0
 41
0.7272727272727272
  7
FDASTYLE0
 72
     5
 11
0.7255656108597287
 21
-1.88823529411764
 31
0.0
100
AcDbText
  0
TEXT
  5
102
330
1F
100
AcDbEntity
  8
0
 62
     7
100
AcDbText
 10
-3.274434389140271
 20
-8.283235294117636
 30
0.0
 40
2.0
  1
φ14
 50
90.0
 41
0.7500000000000001
  7
FDASTYLE0
 72
     5
 11
-3.274434389140271
 21
-3.483235294117636
 31
0.0
100
AcDbText
  0
TEXT
  5
103
330
1F
100
AcDbEntity
  8
0
 62
     7
100
AcDbText
 10
-4.846934389140271
 20
-3.403235294117632
 30
0.0
 40
1.4
  1
 0
 50
90.0
 41
0.7999999999999999
  7
FDASTYLE0
 72
     5
 11
-4.846934389140271
 21
-1.163235294117632
 31
0.0
100
AcDbText
  0
TEXT
  5
104
330
1F
100
AcDbEntity
  8
0
 62
     7
100
AcDbText
 10
-3.174434389140271
 20
-3.403235294117632
 30
0.0
 40
1.4
  1
-0.05
 50
90.0
 41
0.7999999999999999
  7
FDASTYLE0
 72
     5
 11
-3.174434389140271
 21
2.196764705882368
 31
0.0
100
AcDbText
  0
TEXT
  5
105
330
1F
100
AcDbEntity
  8
0
 62
     7
100
AcDbText
 10
-7.274434389140271
 20
-7.854235294117634
 30
0.0
 40
2.0
  1
φ22
 50
90.0
 41
0.7500000000000001
  7
FDASTYLE0
 72
     5
 11
-7.274434389140271
 21
-3.054235294117634
 31
0.0
100
AcDbText
  0
TEXT
  5
106
330
1F
100
AcDbEntity
  8
0
 62
     7
100
AcDbText
 10
-8.056663905045994
 20
-2.718154346676553
 30
0.0
 40
1.4
  1
±0.2
 50
90.0
 41
0.761904761904762
  7
FDASTYLE0
 72
     5
 11
-8.056663905045994
 21
1.761845653323447
 31
0.0
100
AcDbText
  0
TEXT
  5
107
330
1F
100
AcDbEntity
  8
0
 62
     7
100
AcDbText
 10
14.12556561085973
 20
12.01176470588237
 30
0.0
 40
2.0
  1
6.6
 41
0.7999999999999998
  7
FDASTYLE0
 72
     5
 11
18.92556561085973
 21
12.01176470588237
 31
0.0
100
AcDbText
  0
TEXT
  5
108
330
1F
100
AcDbEntity
  8
0
 62
     7
100
AcDbText
 10
15.92556561085973
 20
16.01176470588237
 30
0.0
 40
2.0
  1
7
 41
0.8000000000000007
  7
FDASTYLE0
 72
     5
 11
17.52556561085973
 21
16.01176470588237
 31
0.0
100
AcDbText
  0
TEXT
  5
109
330
1F
100
AcDbEntity
  8
0
 62
     7
100
AcDbText
 10
19.62556561085973
 20
16.01176470588237
 30
0.0
 40
2.0
  1
3.6
 41
0.7999999999999995
  7
FDASTYLE0
 72
     5
 11
24.42556561085973
 21
16.01176470588237
 31
0.0
100
AcDbText
  0
TEXT
  5
10A
330
1F
100
AcDbEntity
  8
0
 62
     7
100
AcDbText
 10
26.57445561085973
 20
16.01176470588237
 30
0.0
 40
2.0
  1
0.8
 41
0.8000000000000002
  7
FDASTYLE0
 72
     5
 11
31.37445561085973
 21
16.01176470588237
 31
0.0
100
AcDbText
  0
TEXT
  5
10B
330
1F
100
AcDbEntity
  8
0
 62
     7
100
AcDbText
 10
15.82556561085973
 20
20.01176470588237
 30
0.0
 40
2.0
  1
11.4
 41
0.7999999999999998
  7
FDASTYLE0
 72
     5
 11
22.22556561085973
 21
20.01176470588237
 31
0.0
100
AcDbText
  0
TEXT
  5
10C
330
1F
100
AcDbEntity
  8
0
 62
     7
100
AcDbText
 10
30.77556561085973
 20
20.01176470588237
 30
0.0
 40
2.0
  1
18.7
 41
0.8000000000000003
  7
FDASTYLE0
 72
     5
 11
37.17556561085973
 21
20.01176470588237
 31
0.0
100
AcDbText
  0
TEXT
  5
10D
330
1F
100
AcDbEntity
  8
0
 62
     7
100
AcDbText
 10
45.27445561085973
 20
16.01176470588237
 30
0.0
 40
2.0
  1
0.8
 41
0.7999999999999995
  7
FDASTYLE0
 72
     5
 11
50.07445561085973
 21
16.01176470588237
 31
0.0
100
AcDbText
  0
TEXT
  5
10E
330
1F
100
AcDbEntity
  8
0
 62
     7
100
AcDbText
 10
29.87128143291069
 20
-25.60975609756097
 30
0.0
 40
2.0
  1
2-M2(P=0.4)
 41
0.8
  7
FDASTYLE0
 72
     5
 11
47.47128143291069
 21
-25.60975609756097
 31
0.0
100
AcDbText
  0
TEXT
  5
10F
330
1F
100
AcDbEntity
  8
0
 62
     7
100
AcDbText
 10
-42.11759890780107
 20
-20.057553675266
 30
0.0
 40
2.0
  1
　4-Ｍ2（Ｐ＝0.4）DEPTH　4ＭＡＸ
 41
0.7333333333333334
  7
FDASTYLE0
 72
     5
 11
-6.917598907801072
 21
-20.057553675266
 31
0.0
100
AcDbText
  0
LINE
  5
110
330
1F
100
AcDbEntity
  8
0
  6
CENTER
 62
     9
100
AcDbLine
 10
-18.52456287072157
 20
-3.488235294117633
 30
0.0
 11
-42.52456287072157
 21
-3.488235294117633
 31
0.0
  0
LINE
  5
111
330
1F
100
AcDbEntity
  8
0
  6
CENTER
 62
     9
100
AcDbLine
 10
-30.52456287072157
 20
8.511764705882367
 30
0.0
 11
-30.52456287072157
 21
-15.48823529411763
 31
0.0
  0
LINE
  5
112
330
1F
100
AcDbEntity
  8
0
  6
CONTINUOUS
 62
     9
100
AcDbLine
 10
43.82556561085973
 20
-10.48823529411764
 30
0.0
 11
48.82556561085973
 21
-10.48823529411764
 31
0.0
  0
LINE
  5
113
330
1F
100
AcDbEntity
  8
0
  6
CONTINUOUS
 62
     9
100
AcDbLine
 10
43.82556561085973
 20
3.51176470588236
 30
0.0
 11
48.82556561085973
 21
3.51176470588236
 31
0.0
  0
LINE
  5
114
330
1F
100
AcDbEntity
  8
0
  6
CONTINUOUS
 62
     9
100
AcDbLine
 10
12.72556561085973
 20
-5.48823529411764
 30
0.0
 11
7.725565610859729
 21
-5.48823529411764
 31
0.0
  0
LINE
  5
115
330
1F
100
AcDbEntity
  8
0
  6
CONTINUOUS
 62
     9
100
AcDbLine
 10
12.72556561085973
 20
-1.98823529411764
 30
0.0
 11
8.725565610859729
 21
-1.98823529411764
 31
0.0
  0
LINE
  5
116
330
1F
100
AcDbEntity
  8
0
  6
CONTINUOUS
 62
     9
100
AcDbLine
 10
9.225565610859729
 20
-5.48823529411764
 30
0.0
 11
9.225565610859729
 21
-1.98823529411764
 31
0.0
  0
LINE
  5
117
330
1F
100
AcDbEntity
  8
0
  6
CONTINUOUS
 62
     9
100
AcDbLine
 10
12.72556561085973
 20
-5.48823529411764
 30
0.0
 11
4.725565610859729
 21
-5.48823529411764
 31
0.0
  0
LINE
  5
118
330
1F
100
AcDbEntity
  8
0
  6
CONTINUOUS
 62
     9
100
AcDbLine
 10
19.32556561085973
 20
-1.48823529411764
 30
0.0
 11
4.725565610859729
 21
-1.48823529411764
 31
0.0
  0
LINE
  5
119
330
1F
100
AcDbEntity
  8
0
  6
CONTINUOUS
 62
     9
100
AcDbLine
 10
5.225565610859729
 20
-5.48823529411764
 30
0.0
 11
5.225565610859729
 21
-1.48823529411764
 31
0.0
  0
LINE
  5
11A
330
1F
100
AcDbEntity
  8
0
  6
CONTINUOUS
 62
     9
100
AcDbLine
 10
21.22556561085973
 20
-7.48823529411764
 30
0.0
 11
0.7255656108597286
 21
-7.48823529411764
 31
0.0
  0
LINE
  5
11B
330
1F
100
AcDbEntity
  8
0
  6
CONTINUOUS
 62
     9
100
AcDbLine
 10
21.22556561085973
 20
0.51176470588236
 30
0.0
 11
0.7255656108597286
 21
0.51176470588236
 31
0.0
  0
LINE
  5
11C
330
1F
100
AcDbEntity
  8
0
  6
CONTINUOUS
 62
     9
100
AcDbLine
 10
23.42556561085973
 20
-10.48823529411764
 30
0.0
 11
-3.274434389140271
 21
-10.48823529411764
 31
0.0
  0
LINE
  5
11D
330
1F
100
AcDbEntity
  8
0
  6
CONTINUOUS
 62
     9
100
AcDbLine
 10
23.42556561085973
 20
3.51176470588236
 30
0.0
 11
-3.274434389140271
 21
3.51176470588236
 31
0.0
  0
LINE
  5
11E
330
1F
100
AcDbEntity
  8
0
  6
CONTINUOUS
 62
     9
100
AcDbLine
 10
24.22556561085973
 20
-14.48823529411764
 30
0.0
 11
-7.274434389140271
 21
-14.48823529411764
 31
0.0
  0
LINE
  5
11F
330
1F
100
AcDbEntity
  8
0
  6
CONTINUOUS
 62
     9
100
AcDbLine
 10
24.22556561085973
 20
7.51176470588236
 30
0.0
 11
-7.274434389140271
 21
7.51176470588236
 31
0.0
  0
LINE
  5
120
330
1F
100
AcDbEntity
  8
0
  6
CONTINUOUS
 62
     9
100
AcDbLine
 10
19.82556561085973
 20
-0.98823529411764
 30
0.0
 11
19.82556561085973
 21
12.01176470588237
 31
0.0
  0
LINE
  5
121
330
1F
100
AcDbEntity
  8
0
  6
CONTINUOUS
 62
     9
100
AcDbLine
 10
20.22556561085973
 20
0.51176470588236
 30
0.0
 11
20.22556561085973
 21
16.01176470588237
 31
0.0
  0
LINE
  5
122
330
1F
100
AcDbEntity
  8
0
  6
CONTINUOUS
 62
     9
100
AcDbLine
 10
23.82556561085973
 20
3.911764705882366
 30
0.0
 11
23.82556561085973
 21
16.01176470588237
 31
0.0
  0
LINE
  5
123
330
1F
100
AcDbEntity
  8
0
  6
CONTINUOUS
 62
     9
100
AcDbLine
 10
24.62556561085973
 20
7.911764705882366
 30
0.0
 11
24.62556561085973
 21
20.01176470588237
 31
0.0
  0
LINE
  5
124
330
1F
100
AcDbEntity
  8
0
  6
CONTINUOUS
 62
     9
100
AcDbLine
 10
23.82556561085973
 20
15.51176470588237
 30
0.0
 11
24.62556561085973
 21
15.51176470588237
 31
0.0
  0
LINE
  5
125
330
1F
100
AcDbEntity
  8
0
  6
CONTINUOUS
 62
     9
100
AcDbLine
 10
13.22556561085973
 20
-1.48823529411764
 30
0.0
 11
13.22556561085973
 21
20.01176470588237
 31
0.0
  0
LINE
  5
126
330
1F
100
AcDbEntity
  8
0
  6
CONTINUOUS
 62
     9
100
AcDbLine
 10
43.32556561085973
 20
7.911764705882366
 30
0.0
 11
43.32556561085973
 21
20.01176470588237
 31
0.0
  0
LINE
  5
127
330
1F
100
AcDbEntity
  8
0
  6
CONTINUOUS
 62
     9
100
AcDbLine
 10
42.52556561085973
 20
4.01176470588236
 30
0.0
 11
42.52556561085973
 21
16.01176470588237
 31
0.0
  0
LINE
  5
128
330
1F
100
AcDbEntity
  8
0
  6
CONTINUOUS
 62
     9
100
AcDbLine
 10
42.52556561085973
 20
15.51176470588237
 30
0.0
 11
43.32556561085973
 21
15.51176470588237
 31
0.0
  0
LINE
  5
129
330
1F
100
AcDbEntity
  8
0
  6
CONTINUOUS
 62
     9
100
AcDbLine
 10
43.32556561085973
 20
4.728264705882367
 30
0.0
 11
46.09876561085968
 21
4.72826470588236
 31
0.0
  0
LINE
  5
12A
330
1F
100
AcDbEntity
  8
0
  6
CONTINUOUS
 62
     9
100
AcDbLine
 10
46.09876561085977
 20
6.295264705882367
 30
0.0
 11
43.32556561085973
 21
6.295264705882367
 31
0.0
  0
LINE
  5
12B
330
1F
100
AcDbEntity
  8
0
  6
CONTINUOUS
 62
     9
100
AcDbLine
 10
43.32556561085973
 20
-11.70473529411765
 30
0.0
 11
46.09876561085968
 21
-11.70473529411764
 31
0.0
  0
LINE
  5
12C
330
1F
100
AcDbEntity
  8
0
  6
CONTINUOUS
 62
     9
100
AcDbLine
 10
46.09876561085977
 20
-13.27173529411765
 30
0.0
 11
43.32556561085973
 21
-13.27173529411765
 31
0.0
  0
LINE
  5
12D
330
1F
100
AcDbEntity
  8
0
  6
CONTINUOUS
 62
     9
100
AcDbLine
 10
49.43468918182691
 20
-26.06193416102755
 30
0.0
 11
29.0765243902439
 21
-26.06193416102755
 31
0.0
  0
LINE
  5
12E
330
1F
100
AcDbEntity
  8
0
  6
CONTINUOUS
 62
     9
100
AcDbLine
 10
48.32556561085973
 20
-10.48823529411764
 30
0.0
 11
48.32556561085973
 21
3.51176470588236
 31
0.0
  0
INSERT
  5
12F
330
1F
100
AcDbEntity
  8
0
 62
     9
100
AcDbBlockReference
  2
_OPEN30
 10
48.32556561085973
 20
-10.48823529411764
 30
0.0
 41
1.500001393912182
 42
1.499994636989232
 50
270.0
  0
INSERT
  5
130
330
1F
100
AcDbEntity
  8
0
 62
     9
100
AcDbBlockReference
  2
_OPEN30
 10
48.32556561085973
 20
3.51176470588236
 30
0.0
 41
1.500001393912182
 42
1.499994636989232
 50
90.0
  0
LINE
  5
131
330
1F
100
AcDbEntity
  8
0
  6
CONTINUOUS
 62
     9
100
AcDbLine
 10
1.225565610859729
 20
-7.48823529411764
 30
0.0
 11
1.225565610859729
 21
0.51176470588236
 31
0.0
  0
INSERT
  5
132
330
1F
100
AcDbEntity
  8
0
 62
     9
100
AcDbBlockReference
  2
_OPEN30
 10
1.225565610859729
 20
-7.48823529411764
 30
0.0
 41
1.500001393912182
 42
1.499994636989232
 50
270.0
  0
INSERT
  5
133
330
1F
100
AcDbEntity
  8
0
 62
     9
100
AcDbBlockReference
  2
_OPEN30
 10
1.225565610859729
 20
0.51176470588236
 30
0.0
 41
1.500001393912182
 42
1.499994636989232
 50
90.0
  0
LINE
  5
134
330
1F
100
AcDbEntity
  8
0
  6
CONTINUOUS
 62
     9
100
AcDbLine
 10
-2.774434389140271
 20
-10.48823529411764
 30
0.0
 11
-2.774434389140271
 21
3.51176470588236
 31
0.0
  0
INSERT
  5
135
330
1F
100
AcDbEntity
  8
0
 62
     9
100
AcDbBlockReference
  2
_OPEN30
 10
-2.774434389140271
 20
-10.48823529411764
 30
0.0
 41
1.500001393912182
 42
1.499994636989232
 50
270.0
  0
INSERT
  5
136
330
1F
100
AcDbEntity
  8
0
 62
     9
100
AcDbBlockReference
  2
_OPEN30
 10
-2.774434389140271
 20
3.51176470588236
 30
0.0
 41
1.500001393912182
 42
1.499994636989232
 50
90.0
  0
LINE
  5
137
330
1F
100
AcDbEntity
  8
0
  6
CONTINUOUS
 62
     9
100
AcDbLine
 10
-6.774434389140271
 20
-14.48823529411764
 30
0.0
 11
-6.774434389140271
 21
7.51176470588236
 31
0.0
  0
INSERT
  5
138
330
1F
100
AcDbEntity
  8
0
 62
     9
100
AcDbBlockReference
  2
_OPEN30
 10
-6.774434389140271
 20
-14.48823529411764
 30
0.0
 41
1.500001393912182
 42
1.499994636989232
 50
270.0
  0
INSERT
  5
139
330
1F
100
AcDbEntity
  8
0
 62
     9
100
AcDbBlockReference
  2
_OPEN30
 10
-6.774434389140271
 20
7.51176470588236
 30
0.0
 41
1.500001393912182
 42
1.499994636989232
 50
90.0
  0
LINE
  5
13A
330
1F
100
AcDbEntity
  8
0
  6
CONTINUOUS
 62
     9
100
AcDbLine
 10
13.22556561085973
 20
11.51176470588237
 30
0.0
 11
19.82556561085973
 21
11.51176470588237
 31
0.0
  0
INSERT
  5
13B
330
1F
100
AcDbEntity
  8
0
 62
     9
100
AcDbBlockReference
  2
_OPEN30
 10
13.22556561085973
 20
11.51176470588237
 30
0.0
 41
1.500001393912182
 42
1.499994636989232
 50
180.0
  0
INSERT
  5
13C
330
1F
100
AcDbEntity
  8
0
 62
     9
100
AcDbBlockReference
  2
_OPEN30
 10
19.82556561085973
 20
11.51176470588237
 30
0.0
 41
1.500001393912182
 42
1.499994636989232
 50
360.0
  0
LINE
  5
13D
330
1F
100
AcDbEntity
  8
0
  6
CONTINUOUS
 62
     9
100
AcDbLine
 10
13.22556561085973
 20
15.51176470588237
 30
0.0
 11
20.22556561085973
 21
15.51176470588237
 31
0.0
  0
INSERT
  5
13E
330
1F
100
AcDbEntity
  8
0
 62
     9
100
AcDbBlockReference
  2
_OPEN30
 10
13.22556561085973
 20
15.51176470588237
 30
0.0
 41
1.500001393912182
 42
1.499994636989232
 50
180.0
  0
INSERT
  5
13F
330
1F
100
AcDbEntity
  8
0
 62
     9
100
AcDbBlockReference
  2
_OPEN30
 10
20.22556561085973
 20
15.51176470588237
 30
0.0
 41
1.500001393912182
 42
1.499994636989232
 50
360.0
  0
LINE
  5
140
330
1F
100
AcDbEntity
  8
0
  6
CONTINUOUS
 62
     9
100
AcDbLine
 10
20.22556561085973
 20
15.51176470588237
 30
0.0
 11
23.82556561085973
 21
15.51176470588237
 31
0.0
  0
INSERT
  5
141
330
1F
100
AcDbEntity
  8
0
 62
     9
100
AcDbBlockReference
  2
_OPEN30
 10
20.22556561085973
 20
15.51176470588237
 30
0.0
 41
1.500001393912182
 42
1.499994636989232
 50
180.0
  0
INSERT
  5
142
330
1F
100
AcDbEntity
  8
0
 62
     9
100
AcDbBlockReference
  2
_OPEN30
 10
23.82556561085973
 20
15.51176470588237
 30
0.0
 41
1.500001393912182
 42
1.499994636989232
 50
360.0
  0
LINE
  5
143
330
1F
100
AcDbEntity
  8
0
  6
CONTINUOUS
 62
     9
100
AcDbLine
 10
13.22556561085973
 20
19.51176470588237
 30
0.0
 11
24.62556561085973
 21
19.51176470588237
 31
0.0
  0
INSERT
  5
144
330
1F
100
AcDbEntity
  8
0
 62
     9
100
AcDbBlockReference
  2
_OPEN30
 10
13.22556561085973
 20
19.51176470588237
 30
0.0
 41
1.500001393912182
 42
1.499994636989232
 50
180.0
  0
INSERT
  5
145
330
1F
100
AcDbEntity
  8
0
 62
     9
100
AcDbBlockReference
  2
_OPEN30
 10
24.62556561085973
 20
19.51176470588237
 30
0.0
 41
1.500001393912182
 42
1.499994636989232
 50
360.0
  0
LINE
  5
146
330
1F
100
AcDbEntity
  8
0
  6
CONTINUOUS
 62
     9
100
AcDbLine
 10
24.62556561085973
 20
19.51176470588237
 30
0.0
 11
43.32556561085973
 21
19.51176470588237
 31
0.0
  0
INSERT
  5
147
330
1F
100
AcDbEntity
  8
0
 62
     9
100
AcDbBlockReference
  2
_OPEN30
 10
24.62556561085973
 20
19.51176470588237
 30
0.0
 41
1.500001393912182
 42
1.499994636989232
 50
180.0
  0
INSERT
  5
148
330
1F
100
AcDbEntity
  8
0
 62
     9
100
AcDbBlockReference
  2
_OPEN30
 10
43.32556561085973
 20
19.51176470588237
 30
0.0
 41
1.500001393912182
 42
1.499994636989232
 50
360.0
  0
LINE
  5
149
330
1F
100
AcDbEntity
  8
0
  6
CONTINUOUS
 62
     9
100
AcDbLine
 10
9.225565610859729
 20
18.95707093238162
 30
0.0
 11
9.225565610859729
 21
-1.98823529411764
 31
0.0
  0
INSERT
  5
14A
330
1F
100
AcDbEntity
  8
0
 62
     9
100
AcDbBlockReference
  2
_OPEN30
 10
9.225565610859729
 20
-1.98823529411764
 30
0.0
 41
1.500001393912182
 42
1.499994636989232
 50
270.0
  0
LINE
  5
14B
330
1F
100
AcDbEntity
  8
0
  6
CONTINUOUS
 62
     9
100
AcDbLine
 10
9.225565610859729
 20
-8.494592441526983
 30
0.0
 11
9.225565610859729
 21
-5.48823529411764
 31
0.0
  0
INSERT
  5
14C
330
1F
100
AcDbEntity
  8
0
 62
     9
100
AcDbBlockReference
  2
_OPEN30
 10
9.225565610859729
 20
-5.48823529411764
 30
0.0
 41
1.500001393912182
 42
1.499994636989232
 50
90.0
  0
LINE
  5
14D
330
1F
100
AcDbEntity
  8
0
  6
CONTINUOUS
 62
     9
100
AcDbLine
 10
5.22556561085973
 20
18.95707093238162
 30
0.0
 11
5.225565610859729
 21
-1.48823529411764
 31
0.0
  0
INSERT
  5
14E
330
1F
100
AcDbEntity
  8
0
 62
     9
100
AcDbBlockReference
  2
_OPEN30
 10
5.225565610859729
 20
-1.48823529411764
 30
0.0
 41
1.500001393912182
 42
1.499994636989232
 50
270.0
  0
LINE
  5
14F
330
1F
100
AcDbEntity
  8
0
  6
CONTINUOUS
 62
     9
100
AcDbLine
 10
5.225565610859729
 20
-8.494592441526983
 30
0.0
 11
5.225565610859729
 21
-5.48823529411764
 31
0.0
  0
INSERT
  5
150
330
1F
100
AcDbEntity
  8
0
 62
     9
100
AcDbBlockReference
  2
_OPEN30
 10
5.225565610859729
 20
-5.48823529411764
 30
0.0
 41
1.500001393912182
 42
1.499994636989232
 50
90.0
  0
LINE
  5
151
330
1F
100
AcDbEntity
  8
0
  6
CONTINUOUS
 62
     9
100
AcDbLine
 10
31.03445561085972
 20
15.51176470588237
 30
0.0
 11
24.62556561085973
 21
15.51176470588237
 31
0.0
  0
INSERT
  5
152
330
1F
100
AcDbEntity
  8
0
 62
     9
100
AcDbBlockReference
  2
_OPEN30
 10
24.62556561085973
 20
15.51176470588237
 30
0.0
 41
1.500001393912182
 42
1.499994636989232
 50
180.0
  0
LINE
  5
153
330
1F
100
AcDbEntity
  8
0
  6
CONTINUOUS
 62
     9
100
AcDbLine
 10
50.57445561085973
 20
15.51176470588237
 30
0.0
 11
43.32556561085973
 21
15.51176470588237
 31
0.0
  0
INSERT
  5
154
330
1F
100
AcDbEntity
  8
0
 62
     9
100
AcDbBlockReference
  2
_OPEN30
 10
43.32556561085973
 20
15.51176470588237
 30
0.0
 41
1.500001393912182
 42
1.499994636989232
 50
180.0
  0
LINE
  5
155
330
1F
100
AcDbEntity
  8
0
  6
CONTINUOUS
 62
     9
100
AcDbLine
 10
40.02556561085973
 20
15.51176470588237
 30
0.0
 11
42.52556561085973
 21
15.51176470588237
 31
0.0
  0
INSERT
  5
156
330
1F
100
AcDbEntity
  8
0
 62
     9
100
AcDbBlockReference
  2
_OPEN30
 10
42.52556561085973
 20
15.51176470588237
 30
0.0
 41
1.500001393912182
 42
1.499994636989232
 50
360.0
  0
LINE
  5
157
330
1F
100
AcDbEntity
  8
0
  6
CONTINUOUS
 62
     9
100
AcDbLine
 10
44.94073918218768
 20
-13.48823529411767
 30
0.0
 11
49.43468918182691
 21
-26.06193416102755
 31
0.0
  0
INSERT
  5
158
330
1F
100
AcDbEntity
  8
0
 62
     9
100
AcDbBlockReference
  2
_OPEN30
 10
44.94073918218768
 20
-13.48823529411767
 30
0.0
 41
1.500001393912182
 42
1.499994636989232
 50
109.6673341135812
  0
INSERT
  5
159
330
1F
100
AcDbEntity
  8
0
  6
CONTINUOUS
100
AcDbBlockReference
  2
DA_IMAGEDIMGROUP_1
 10
0.0
 20
0.0
 30
0.0
  0
INSERT
  5
15A
330
1F
100
AcDbEntity
  8
0
  6
CONTINUOUS
100
AcDbBlockReference
  2
DA_IMAGEDIMGROUP_2
 10
0.0
 20
0.0
 30
0.0
  0
INSERT
  5
15B
330
1F
100
AcDbEntity
  8
0
  6
CONTINUOUS
100
AcDbBlockReference
  2
DA_IMAGEDIMGROUP_3
 10
0.0
 20
0.0
 30
0.0
  0
INSERT
  5
15C
330
1F
100
AcDbEntity
  8
0
  6
CONTINUOUS
100
AcDbBlockReference
  2
DA_IMAGEDIMGROUP_4
 10
0.0
 20
0.0
 30
0.0
  0
VIEWPORT
  5
46
330
1B
100
AcDbEntity
 67
     1
  8
0
100
AcDbViewport
 10
1.672148343906414
 20
-2.02508472757259
 30
0.0
 40
293.4138436017199
 41
144.2210966007298
 68
     1
 69
     1
1001
ACAD
1000
MVIEW
1002
{
1070
    16
1010
0.0
1020
0.0
1030
0.0
1010
0.0
1020
0.0
1030
1.0
1040
0.0
1040
144.2210966007298
1040
1.672148343906414
1040
-2.02508472757259
1040
50.0
1040
0.0
1040
0.0
1070
     0
1070
   100
1070
     0
1070
     1
1070
     0
1070
     0
1070
     0
1070
     0
1040
0.0
1040
0.0
1040
0.0
1040
0.5
1040
0.5
1040
0.0
1040
0.0
1070
     0
1002
{
1002
}
1002
}
  0
ENDSEC
  0
SECTION
  2
OBJECTS
  0
DICTIONARY
  5
C
330
0
100
AcDbDictionary
  3
ACAD_GROUP
350
D
  3
ACAD_LAYOUT
350
1A
  3
ACAD_MLINESTYLE
350
17
  3
ACAD_PLOTSETTINGS
350
19
  3
ACDBHEADERROUNDTRIPXREC
350
15D
  0
DICTIONARY
  5
D
102
{ACAD_REACTORS
330
C
102
}
330
C
100
AcDbDictionary
  0
DICTIONARY
  5
1A
102
{ACAD_REACTORS
330
C
102
}
330
C
100
AcDbDictionary
  0
DICTIONARY
  5
17
102
{ACAD_REACTORS
330
C
102
}
330
C
100
AcDbDictionary
  3
STANDARD
350
18
  0
DICTIONARY
  5
19
102
{ACAD_REACTORS
330
C
102
}
330
C
100
AcDbDictionary
  0
DICTIONARY
  5
15D
102
{ACAD_REACTORS
330
C
102
}
330
C
100
AcDbDictionary
  3
CEPSNTYPE
350
166
  3
DIMSTYLEDATA
350
17C
  3
FINGERPRINTGUID
350
167
  3
HYPERLINKBASE
350
160
  3
INSUNITS
350
165
  3
LAYOUTDICT
350
162
  3
LWETCUNION
350
164
  3
PLOTSETDICT
350
163
  3
PSVPSCALE
350
169
  3
PUCSBASE
350
16C
  3
PUCSORGBACK
350
172
  3
PUCSORGBOTTOM
350
16E
  3
PUCSORGFRONT
350
171
  3
PUCSORGLEFT
350
16F
  3
PUCSORGRIGHT
350
170
  3
PUCSORGTOP
350
16D
  3
PUCSORTHOREF
350
16A
  3
PUCSORTHOVIEW
350
16B
  3
STYLESHEET
350
161
  3
TSTACKALIGN
350
15E
  3
TSTACKSIZE
350
15F
  3
UCSBASE
350
175
  3
UCSORGBACK
350
17B
  3
UCSORGBOTTOM
350
177
  3
UCSORGFRONT
350
17A
  3
UCSORGLEFT
350
178
  3
UCSORGRIGHT
350
179
  3
UCSORGTOP
350
176
  3
UCSORTHOREF
350
173
  3
UCSORTHOVIEW
350
174
  3
VERSIONGUID
350
168
  0
MLINESTYLE
  5
18
102
{ACAD_REACTORS
330
17
102
}
330
17
100
AcDbMlineStyle
  2
Standard
 70
     0
  3

 62
   256
 51
90.0
 52
90.0
 71
     2
 49
0.5
 62
   256
  6
BYLAYER
 49
-0.5
 62
   256
  6
BYLAYER
  0
XRECORD
  5
166
102
{ACAD_REACTORS
330
15D
102
}
330
15D
100
AcDbXrecord
 90
        0
  0
XRECORD
  5
17C
102
{ACAD_REACTORS
330
15D
102
}
330
15D
100
AcDbXrecord
1000
DSTYLE
1002
{
1070
   171
 70
     2
1070
   143
 40
25.4
1070
   274
 70
     2
1070
    41
 40
1.25
1070
   141
 40
0.09
1070
   271
 70
     4
1070
    43
 40
0.38
1070
    44
 40
0.18
1070
   278
 70
    46
1070
    42
 40
0.0625
1070
   147
 40
0.09
1070
    77
 70
     3
1070
   272
 70
     4
1070
    73
 70
     1
1070
   172
 70
     0
1070
    74
 70
     1
1070
   283
 70
     1
1070
   340
340
11
1070
   140
 40
0.18
1070
   284
 70
     0
1070
    78
 70
     0
1002
}
  0
XRECORD
  5
167
102
{ACAD_REACTORS
330
15D
102
}
330
15D
100
AcDbXrecord
  1
{A83EE545-C1CB-4E1B-B46A-A446B43CDFF3}
  0
XRECORD
  5
160
102
{ACAD_REACTORS
330
15D
102
}
330
15D
100
AcDbXrecord
  1

  0
XRECORD
  5
165
102
{ACAD_REACTORS
330
15D
102
}
330
15D
100
AcDbXrecord
 90
        4
  0
XRECORD
  5
162
102
{ACAD_REACTORS
330
15D
102
}
330
15D
100
AcDbXrecord
340
1A
  0
XRECORD
  5
164
102
{ACAD_REACTORS
330
15D
102
}
330
15D
100
AcDbXrecord
 90
    10781
  0
XRECORD
  5
163
102
{ACAD_REACTORS
330
15D
102
}
330
15D
100
AcDbXrecord
340
19
  0
XRECORD
  5
169
102
{ACAD_REACTORS
330
15D
102
}
330
15D
100
AcDbXrecord
 40
0.0
  0
XRECORD
  5
16C
102
{ACAD_REACTORS
330
15D
102
}
330
15D
100
AcDbXrecord
340
0
  0
XRECORD
  5
172
102
{ACAD_REACTORS
330
15D
102
}
330
15D
100
AcDbXrecord
 10
0.0
 20
0.0
 30
0.0
  0
XRECORD
  5
16E
102
{ACAD_REACTORS
330
15D
102
}
330
15D
100
AcDbXrecord
 10
0.0
 20
0.0
 30
0.0
  0
XRECORD
  5
171
102
{ACAD_REACTORS
330
15D
102
}
330
15D
100
AcDbXrecord
 10
0.0
 20
0.0
 30
0.0
  0
XRECORD
  5
16F
102
{ACAD_REACTORS
330
15D
102
}
330
15D
100
AcDbXrecord
 10
0.0
 20
0.0
 30
0.0
  0
XRECORD
  5
170
102
{ACAD_REACTORS
330
15D
102
}
330
15D
100
AcDbXrecord
 10
0.0
 20
0.0
 30
0.0
  0
XRECORD
  5
16D
102
{ACAD_REACTORS
330
15D
102
}
330
15D
100
AcDbXrecord
 10
0.0
 20
0.0
 30
0.0
  0
XRECORD
  5
16A
102
{ACAD_REACTORS
330
15D
102
}
330
15D
100
AcDbXrecord
340
0
  0
XRECORD
  5
16B
102
{ACAD_REACTORS
330
15D
102
}
330
15D
100
AcDbXrecord
 70
     0
  0
XRECORD
  5
161
102
{ACAD_REACTORS
330
15D
102
}
330
15D
100
AcDbXrecord
  1

  0
XRECORD
  5
15E
102
{ACAD_REACTORS
330
15D
102
}
330
15D
100
AcDbXrecord
 90
        1
  0
XRECORD
  5
15F
102
{ACAD_REACTORS
330
15D
102
}
330
15D
100
AcDbXrecord
 90
       70
  0
XRECORD
  5
175
102
{ACAD_REACTORS
330
15D
102
}
330
15D
100
AcDbXrecord
340
0
  0
XRECORD
  5
17B
102
{ACAD_REACTORS
330
15D
102
}
330
15D
100
AcDbXrecord
 10
0.0
 20
0.0
 30
0.0
  0
XRECORD
  5
177
102
{ACAD_REACTORS
330
15D
102
}
330
15D
100
AcDbXrecord
 10
0.0
 20
0.0
 30
0.0
  0
XRECORD
  5
17A
102
{ACAD_REACTORS
330
15D
102
}
330
15D
100
AcDbXrecord
 10
0.0
 20
0.0
 30
0.0
  0
XRECORD
  5
178
102
{ACAD_REACTORS
330
15D
102
}
330
15D
100
AcDbXrecord
 10
0.0
 20
0.0
 30
0.0
  0
XRECORD
  5
179
102
{ACAD_REACTORS
330
15D
102
}
330
15D
100
AcDbXrecord
 10
0.0
 20
0.0
 30
0.0
  0
XRECORD
  5
176
102
{ACAD_REACTORS
330
15D
102
}
330
15D
100
AcDbXrecord
 10
0.0
 20
0.0
 30
0.0
  0
XRECORD
  5
173
102
{ACAD_REACTORS
330
15D
102
}
330
15D
100
AcDbXrecord
340
0
  0
XRECORD
  5
174
102
{ACAD_REACTORS
330
15D
102
}
330
15D
100
AcDbXrecord
 70
     0
  0
XRECORD
  5
168
102
{ACAD_REACTORS
330
15D
102
}
330
15D
100
AcDbXrecord
  1
{FAEB1C32-E019-11D5-929B-00C0DF256EC4}
  0
ENDSEC
  0
EOF
